Ads

Miller Ball Breakers (Jet Set Radio) Guitar Tab

Submitted: Aug 17, 2013 by (Last updated: Sep 15, 2013)

5
Average: 5 (1 vote)
Download | Listen
Game: Jet Set Radio
Composer(s): Hideki Naganuma
Style: Transcription

AutoScroll: Slow | Medium | Fast
e-------------------------------------------
G-------------------------------------------
B-------------------------------------------
D---------6-4-6-4-2--2----------------------
A--4-2-4---------------4-2-4-4-2-2-0--2-----
E-------------------------------------------

e-------------------------------------------
G-------------------------------------------
B-------------------------------------------
D-------------------------------------------
A--4-4-2-2-0-2----4--4-4-2-2-0--0-----------
E-------------------------------------------

e-4-0-------4-0-0--5-4-------------------------------
B-----2-0-2------------------------------------------
G----------------------------------------------------
D----------------------------------------------------
A----------------------------------------------------
E----------------------------------------------------

e-4-0-------4-0-0---2--------------------------------
B-----2-0-2-------2---2------------------------------
G----------------------------------------------------
D----------------------------------------------------
A----------------------------------------------------
E----------------------------------------------------

Main part:
e-------0--0-2-0-2-4-2-0-----------------------------
B-2-0-2----------------------------------------------
G----------------------------------------------------
D----------------------------------------------------
A----------------------------------------------------
E----------------------------------------------------x3

e-----4-------2---0--2-4-2-4-2--0-2-0----------------
B-0-2--2--0-2--2-------------------------------------
G----------------------------------------------------
D----------------------------------------------------
A----------------------------------------------------
E----------------------------------------------------
Login or Register to remove this ad.