Water Ruin (Jet Force Gemini) Bass/Guitar Tab

Submitted: Jul 22, 2016 by wolfrain64

5
Average: 5 (1 vote)
Download | Listen
Game: Jet Force Gemini
Composer(s): Robin Beanland, Graeme Norgate, Alistair Lindsay
Style: 2 or more instruments, Transcription

Click here for a video example.

AutoScroll: Slow | Medium | Fast
                                Jet Force Gemini - Water Ruins                                     

 								  song: Water ruins
								  game: Jet Force Gemini
								  Composer: Robin Beanland
							          tabber: Wolfrain64
								  Date:	6/23/2016
                                                                  
Intro 								  
1st acoustic
             7/8                        4/4
     E  E  E  S E  E  E  S    E  E  E  S E  E  E  S S S 
E||------------------------|----------------------------|
B||------------------------|----------------------------|
G||-----------2----------2-|-----------2----------2-5-4-|
D||-----3--5-------3--5----|-----3--5-------3--5--------|
A||--5----------5----------|--5----------5--------------|
E||------------------------|----------------------------|

     E  E  E  S E  E  E  S    E  E  E  S E  E  E  S S S
  |------------------------|----------------------------|
  |------------------------|----------------------------|
  |-----------2----------2-|-----------2----------2-5-7-|
  |-----3--5-------3--5----|-----3--5-------3--5--------|
  |--5----------5----------|--5----------5--------------|
  |------------------------|----------------------------|

2nd acoustic
                7/8                             4/4
     S S S S S S S S S S S S S    S S S S S S S S S S S S S   
E||------------------------------|----------------------------------|
B||------------------------------|----------------------------------|
G||------2-------2-----2-------2-|------2-------2-----2-------2-----|
D||--3-5---5-3-5---3-5---5-3-5---|--3-5---5-3-5---3-5---5-3-5---3-5-|
A||------------------------------|----------------------------------|
E||------------------------------|----------------------------------|

1st part
clean leads
             7/8                     4/4                    7/8
      Q.     S  E   S  Q        W                   Q.     S E   S Q     
E||--12------L-13--12-10----|---L----------------|--8------L-7--10-8----|
B||-------------------------|--------------------|----------------------|
G||-------------------------|--------------------|----------------------|
D||-------------------------|--------------------|----------------------|
A||-------------------------|--------------------|----------------------|
E||-------------------------|--------------------|----------------------|
         4/4                     7/8                    4/4
   W                    Q.     S  E   S  Q        W                 
---L----------------|--15------L-17--15-13----|---L----------------|
--------------------|--17------L-18--17-15----|---L----------------|
--------------------|-------------------------|--------------------|
--------------------|-------------------------|--------------------|
--------------------|-------------------------|--------------------|
--------------------|-------------------------|--------------------|

             ^   ^  ^                                              
   Q.     S  E   S  Q        W                                     
--12------L-12--15-13----|---L----------------|
--13--------12--15-13----|---L----------------|
-------------------------|--------------------|
-------------------------|--------------------|
-------------------------|--------------------|
-------------------------|--------------------|


2nd part - 7/8
Bass
  E.  E  E  E.  E  E     E.  E  E  E.  E  E     E.  E  E  E.  E  E   
G||----------------------|----------------------|----------------------|----------------------|
D||----------------------|----------------------|----------------------|----------------------|
A||--1---3--5--1---3--5--|--1---3--5--1---------|----------------------|----------------------|
E||----------------------|----------------5--3--|--1---3--5--1---3--5--|--1---3--5--1---3--5--|

  E.  E  E  E.  E  E     E.  E  E  E.  E  E     E.  E  E  E.  E  E   
----------------------|----------------------|----------------------|----------------------|-----|
----------------------|----------------------|----------------------|----------------------|-----|
--1---3--5--1---3--5--|--1---3--5--1---------|---------1---------1--|--0---1--3--0---1--3--|--5--|
----------------------|----------------5--3--|--3---5-----3---5-----|----------------------|-----|

Clean leads
    E.   S  E  S E.  E.  S    Q     E   S  E.   E   E      W                 
|--10----L--8--6-5---3---5-|--L-----8--10-12---13--15--|--17----------------|
|--11------10--8-6---5---6-|--L----10--11-13---15--17--|--18----------------|
|--------------------------|---------------------------|--------------------|
|--------------------------|---------------------------|--------------------|
|--------------------------|---------------------------|--------------------|
|--------------------------|---------------------------|--------------------|


3rd part - 4/4
strings
     E  E  E  S S E  E  E  E     E  E  E  S S E  E  E  E     E  E  E  S S E  E  E  E     E  E  E  S S E  E  E  E  
E||---------------------------|---------------------------|---------------------------|---------------------------|
B||--6--6--6--6-5-6--6--6--6--|--5--5--5--5-3-5--5--5--5--|--3--3--3--3-1-3--3--3--3--|--3--3--3--3-1-3--3--3--3--|
G||--7--7--7--7-5-7--7--7--7--|--5--5--5--5-3-5--5--5--5--|--3--3--3--3-2-3--3--3--3--|--3--3--3--3-2-3--3--3--3--|
D||---------------------------|---------------------------|---------------------------|---------------------------|
A||---------------------------|---------------------------|---------------------------|---------------------------|
E||---------------------------|---------------------------|---------------------------|---------------------------|

clean leads
    H        Q     E   E      H        Q    E   E      H        Q    Q   
|--17-------------17--13--|--15----------------15--|--13------------------|
|--18-------------18--15--|--17----------------17--|--15------------------|
|-------------------------|------------------------|----------------------|
|-------------------------|------------------------|----------------------|
|-------------------------|------------------------|----------------------|
|-------------------------|------------------------|----------------------|
                                                                                                2nd time: lower tempo
    S  S  E  E  E  E  E  E  E      S  S  E   E   E  E  E  E  E      Q.      S  S  Q    E  E      Q.      S  S  Q     Q    
|--17-15-----------------------|--17-15-----15------------------|----------------------------|----------------------------|
|--------18--------------------|--------18------17--------------|--18------17-15-17----------|--18------17-15-17----------|
|------------------------------|--------------------------------|----------------------------|----------------------17----|
|------------------------------|--------------------------------|----------------------------|----------------------------|
|------------------------------|--------------------------------|----------------------------|----------------------------|
|------------------------------|--------------------------------|----------------------------|----------------------------|

Suspense
Strings only
E||--18-----------------L--|
B||------------------------|
G||---5-----------------L--|x4
D||------------------------|
A||----------1---2---------|
E||----------1---2---------|

Last part
1st acoustic 
            |-3-|                           |-3-|           
     Q.     S S Q    S E.  E     Q    S E.  S S Q    S E.   
E||---------------------------|----------------------------|
B||---------------------------|---------4---6-4-6------L---|
G||--5------6-5-3----------6--|-------L--------------------|
D||------------------6-6------|----------------------------|
A||---------------------------|----------------------------|
E||---------------------------|----------------------------|

  E  E  Q    Q    Q       Q    H        Q       W                         
-------------4----6----|--L----L--------8----|--6----------------||
--4--6--7--------------|---------------------|-------------------||
-----------------------|---------------------|-------------------||
-----------------------|---------------------|-------------------||
-----------------------|---------------------|-------------------||
-----------------------|---------------------|-------------------||

2nd acoustic
              Q    Q    Q    Q       Q    E  E  E  Q.        W                 
|----------------------|-----------------------|-------------------||
|----------------------|----------4--6--7------|-------------------||
|-----------------3----|-------6---------------|--3----------------||
|-------4----6---------|--3--------------------|-------------------||
|----------------------|-----------------------|-------------------||
|----------------------|-----------------------|-------------------||


Duration Legend
---------------
W - whole
H - half
Q - quarter
E - 8th
S - 16th
T - 32nd
X - 64th
. - note dotted
|-n-|  - n-tuplets


Tablature Legend
----------------
L - tied note
x - dead note
g - grace note
(n) - ghost note
> - accentuded note
NH - natural harmonic
AH - artificial harmonic
TH - tapped harmonic
SH - semi harmonic
PH - pitch harmonic
h - hammer on
p - pull off
b - bend
br - bendRelease
pb - preBend
pbr - preBendRelease
brb - bendReleaseBend
\n/ - tremolo bar dip
\n - tremolo bar dive
-/n - tremolo bar Release up
/n\ - tremolo bar inverted dip
/n - tremolo bar return
-\n - tremolo bar Release down
S - shift slide
s - legato slide
/ -  slide into from below or out of upwards
\ -  slide into from above or out of downwards
~ - vibrato
W - wide vibrato
tr - trill
TP - tremolo picking
T - tapping
S - slap
P - pop
< - fade in
^ - brush up
v - brush down
Login or Register to remove this ad.