Koris, the Blue Cocoon Master (Jade Cocoon) Bass/Guitar Tab

Submitted: Jul 14, 2018 by hashel

0
Download | Listen
Game: Jade Cocoon
Composer(s): Kimitaka Matsumae
Style: 2 or more instruments, Transcription

AutoScroll: Slow | Medium | Fast
Tempo = 100

Main Melody

E |-------|-------|-------|----------------------------|
B |-------|-------|-------|----------------------------|
G |-------|-------|-------|-----------------------15---|
D |-------|-------|-------|----------------------------|
A |-------|-------|-------|----------------------------|
E |-------|-------|-------|----------------------------|


----------------------------------------------------|
-----------------------------------15-------16------|
--17----------------15----17------------------------|
----------------------------------------------------|
----------------------------------------------------|
----------------------------------------------------|


----------------------------|
--15------------------------|
-----------------------15---|
----------------------------|
----------------------------|
----------------------------|


----------------------------------------------------|
-----------------------------------15---------------|
--17----------------15----17----------------15------|
----------------------------------------------------|
----------------------------------------------------|
----------------------------------------------------|


----------------------------|
----------------------------|
-----------------------15---|
--17------------------------|
----------------------------|
----------------------------|


----------------------------------------------------|
-----------------------------------15-------16------|
--17----------------15----17------------------------|
----------------------------------------------------|
----------------------------------------------------|
----------------------------------------------------|


-----------------------18---|--20h18-20L-----------------|--20~--|----|----|
--15----------18------------|----------------------------|-------|----|----|
----------------------------|----------------------------|-------|----|----|
----------------------------|----------------------------|-------|----|----|
----------------------------|----------------------------|-------|----|----|
----------------------------|----------------------------|-------|----|----|


----|----|--20----------------------20-------22-------23------|--22-------18---|
----|----|----------------------------------------------------|----------------|
----|----|----------------------------------------------------|----------------|
----|----|----------------------------------------------------|----------------|
----|----|----------------------------------------------------|----------------|
----|----|----------------------------------------------------|----------------|


--16----------------------16-------18-------20------|--18-------15---|
----------------------------------------------------|----------------|
----------------------------------------------------|----------------|
----------------------------------------------------|----------------|
----------------------------------------------------|----------------|
----------------------------------------------------|----------------|


--13----------------------13-------15-------16------|--15------------|
----------------------------------------------------|-----------16---|
----------------------------------------------------|----------------|
----------------------------------------------------|----------------|
----------------------------------------------------|----------------|
----------------------------------------------------|----------------|


----------------|----------------|-------|----|----|----||
--15------------|----------------|-------|----|----|----||
-----------17---|--17-16---------|--17---|----|----|----||
----------------|----------------|-------|----|----|----||
----------------|----------------|-------|----|----|----||
----------------|----------------|-------|----|----|----||


Bass Line (Drop D)

G |-------|----------------------------|-------|----------------------------|
D |-------|----------------------------|-------|----------------------------|
A |--3----|--3--------------------1----|--3----|--3--------------------1----|
D |-------|----------------------------|-------|----------------------------|


----------------------------|----------------------------|
----------------------------|----------------------------|
--3--------------------3----|--1--------------------1----|
----------------------------|----------------------------|


----------------------------|----------------------------|
----------------------------|----------------------------|
----------------------------|----------------------------|
--6--------------------6----|--5--------------------5----|


----------------------------|----------------------------|
----------------------------|----------------------------|
----------------------------|--1--------------------1----|
--6--------------------6----|----------------------------|


----------------------------|----------------------------|-------|
----------------------------|----------------------------|-------|
----------------------------|----------------------------|--3----|
--3--------------------3----|--3--------------------3----|-------|


----------------------------|-------|----------------------------|
----------------------------|-------|----------------------------|
--3--------------------1----|--3----|--3--------------------1----|
----------------------------|-------|----------------------------|


----------------------------|----------------------------|
----------------------------|----------------------------|
----------------------------|----------------------------|
--6--------------------6----|--5--------------------5----|


----------------------------|----------------------------|
----------------------------|----------------------------|
----------------------------|----------------------------|
--3--------------------3----|--1--------------------1----|


----------------------------|----------------------------|
----------------------------|----------------------------|
--4--------------------4----|--3--------------------3----|
----------------------------|----------------------------|


----------------------------|----------------------------|-------|
----------------------------|----------------------------|-------|
--5--------------------5----|----------------------------|--3----|
----------------------------|--5--------------------5----|-------|


----------------------------|-------|----------------------------||
----------------------------|-------|----------------------------||
--3--------------------1----|--3----|--3--------------------1----||
----------------------------|-------|----------------------------||


Chords



E |-------|-------|-------|-------|-------|-------|-------|-------|-------|
B |-------|-------|-------|-------|-------|-------|-------|-------|-------|
G |--5L---|--5L---|--5L---|--5----|--5----|--3----|-------|-------|-------|
D |--5L---|--5L---|--5L---|--5----|--5----|--3----|--6----|--5----|--6----|
A |--3L---|--3L---|--3L---|--3----|--3----|--1----|--6----|--5----|--6----|
E |-------|-------|-------|-------|-------|-------|--4----|--3----|--4----|


-------|-------|-------|-------|-------|-------|--8----|-------|-------|-------|
-------|-------|-------|-------|-------|-------|--8----|--13---|--11---|--9----|
--3----|-------|-------|-------|-------|--8L---|--8----|--13---|--12---|--10---|
--3----|--3L---|--3----|--10L--|--10L--|--10L--|--10---|--13---|--12---|--10---|
--1----|--3L---|--3----|--10L--|--10L--|--10L--|--10---|--11---|--10---|--8----|
-------|--1L---|--1----|--8L---|--8L---|--8L---|--8----|-------|-------|-------|


-------|-------|-------|-------|-------|-------|-------|-------|-------||
--8----|--6----|--4----|--7----|--3----|-------|-------|-------|-------||
--8----|--6----|--5----|--5----|--4----|--5L---|--5L---|--5L---|--5----||
--8----|--6----|--5----|--7----|--3----|--5L---|--5L---|--5L---|--5----||
--6----|--4----|--3----|--5----|--5----|--3L---|--3L---|--3L---|--3----||
-------|-------|-------|-------|--3----|-------|-------|-------|-------||
Login or Register to remove this ad.