Login or Register to remove this ad.

Kioku no Shoushitsu (Isshuukan Friends) Guitar Tab

Submitted: Jul 18, 2014 by scarecrowlol (Last updated: Jul 19, 2014)

5
Average: 5 (6 votes)
Download | Listen
Game: Isshuukan Friends
Composer(s): Nobuko Toda
Style: Arrangement, Fingerstyle, Pinch harmonics

AutoScroll: Slow | Medium | Fast
Title: Kioku no Shoushitsu
SubTitle: Isshuukan Friends
Artist: Takuya Ohashi, Shintaro Tokita
Tabber: Mitch Jackson
Tempo = 92
T/S = 3/4


    ♪♫•*¨*•.¸¸ CAPO 3 ¸¸.•*¨*•♫♪



     E  E  E  E  E  E       E  E  E  Q.            H.                     H.                   
E |--0-----0-----0-------|--0--------0----------|-<0>------------------|--L-------------------|
B |-----3-----1-----0----|--------0-------------|----------------------|----------------------|
G |----------------------|-----2----------------|----------------------|----------------------|
D |----------------------|----------------------|----------------------|----------------------|
A |----------------------|----------------------|----------------------|----------------------|
E |----------------------|----------------------|----------------------|----------------------|

                                                P.H. 19
     E  E  E  E  E  E       E  E  E  Q.            H.                     H.                   
  |--0-----0-----0-------|--0--------0----------|-<0>------------------|--L-------------------|
  |-----3-----1-----0----|--------0-------------|----------------------|----------------------|
  |----------------------|-----2----------------|----------------------|----------------------|
  |----------------------|----------------------|----------------------|----------------------|
  |----------------------|----------------------|----------------------|----------------------|
  |----------------------|----------------------|----------------------|----------------------|


     E  E  E  E  E  E       E  E  E  Q.            H.                     H.                   
  |--0-----0-----0-------|--0--------0----------|----------------------|----------------------|
  |-----3-----1-----0----|-----------0----------|-<0>------------------|--L-------------------|
  |----------------------|--------2-------------|----------------------|----------------------|
  |----------------------|-----3----------------|----------------------|----------------------|
  |----------------------|----------------------|----------------------|----------------------|
  |----------------------|----------------------|----------------------|----------------------|


     E  E  E  E  E  E       E  E  E  Q.            H.                     H.                   
  |----------------------|----------------------|----------------------|----------------------|
  |--0-----0-----0-------|--0--------0----------|----------------------|----------------------|
  |-----2-----0----------|--------0-------------|----------------------|----------------------|
  |-----------------4----|-----2----------------|-<2>------------------|--L-------------------|
  |----------------------|----------------------|----------------------|----------------------|
  |----------------------|----------------------|----------------------|----------------------|

                                                   ^
     E  E  E  E  E  E       E  E  E  E  E  E       E  E  E  E  E  E       E  E  E  E  E  E     
  |----------------------|----------------------|-(0)------------------|--0-------------------|
  |--0--------0----------|-----------0----------|--1--------0----------|-----0-----------0----|
  |--------2-----2-------|--------2-----2-------|--4-----2-----2-------|--------2-----2-------|
  |-----2-----------2----|-----2-----------2----|-----2-----------2----|-----------2----------|
  |----------------------|----------------------|--0-------------------|----------------------|
  |--1-------------------|--3-------------------|----------------------|----------------------|

                                                   ^
     E  E  E  E  E  E       E  E  E  E  E  E       H.                     H.                   
  |--------------0-------|----------------------|--0-------------------|--L-------------------|
  |--0--------0----------|--3--------0----------|--0-------------------|--L-------------------|
  |--------2-----2-------|--------2-----2-------|--2-------------------|--L-------------------|
  |-----2-----------2----|-----2-----------2----|--2-------------------|--L-------------------|
  |----------------------|----------------------|--0-------------------|--L-------------------|
  |--1-------------------|--3-------------------|----------------------|----------------------|

                                                                             
     E  E  E  E  E  E       E  E  E  E  E  E       E  E  E  E  E  E       S S S S E  E  E  E 
  |--0-----0--3----------|----------------------|--0-----0--3----------|-------------0--5s-7----|
  |-----3--------3--1----|--0-----0--3----------|-----3-----0--3--1----|--0p1h0------1----------|
  |----------------------|-----2--------0-------|--------2-------------|--------2---------------|
  |-----2----------------|-----2-----------3----|-----2----------------|----------2-------------|
  |----------------------|----------------------|--0-------------------|------------------------|
  |--1-------------------|--3-------------------|----------------------|------------------------|


     E  E  E  E  E  E       E  E  E  E  E  E       E  E  E  E  E  E       E  E  E  E  E  E     
  |--0-----0--3----------|----------------------|--0-----0--7----------|-----------0----------|
  |-----3--------3--1----|--0-----0--3----------|-----3-----0--0-------|--1--------0--0-------|
  |----------------------|-----2--------0-------|--------2--------2----|--------2--------2----|
  |-----2----------------|-----2-----------3----|-----2----------------|-----2----------------|
  |----------------------|----------------------|--0-------------------|--0-------------------|
  |--1-------------------|--3-------------------|----------------------|----------------------|

                                                                     
     E  E  E  E  E  E       E  E  E  E  E  E       E  E  E  E  E  E       S S S S E  E  E  E     
  |--0-----0--3----------|-----------0----------|--0-----0--3----------|-------------0--5s-7----|
  |-----3-----0--3--1----|--0-----0--3----------|-----3-----0--3--1----|--0p1h0------1----------|
  |----------------------|-----2--------0-------|--------2-------------|--------2---------------|
  |-----2----------------|-----2-----------3----|-----2----------------|----------2-------------|
  |----------------------|----------------------|--0-------------------|------------------------|
  |--1-------------------|--3-------------------|----------------------|------------------------|
                         
                         |--------RALL--------->
     E  E  E  E  E  E       E  E  E  E  E  E       H.                     H.                   
  |--0-----0--3----------|--------3-------<3>---|--L-------------------|--L-------------------|
  |-----3-----0--3--1----|--0-------<0>---------|--L-------------------|--L-------------------|
  |----------------------|-----5-------<5>------|--L-------------------|--L-------------------|
  |-----2----------------|----------------------|----------------------|----------------------|
  |----------------------|----------------------|----------------------|----------------------|
  |--1-------------------|--3-------------------|----------------------|----------------------|
      
     ^
     H.                     H.                    
  |--0-------------------|--L-------------------||
  |--0-------------------|--L-------------------||
  |--2-------------------|--L-------------------||
  |--2-------------------|--L-------------------||
  |--0-------------------|--L-------------------||
  |----------------------|----------------------||

Login or Register to remove this ad.

3 comments on Kioku no Shoushitsu

Very simple and touching, and

5

Very simple and touching, and so beautifull.

I really like this =)

5

I really like this =)

Glad you like it c: its a

Glad you like it c: its a very lovely song from a lovely anime