Ads

Inuyasha's Lullaby (Inuyasha) Guitar Tab

Submitted: Jan 07, 2014 by kakesama

4.5
Average: 4.5 (4 votes)
Download | Listen
Game: Inuyasha
Composer(s): Kaoru Wada
Style: Arrangement, Fingerstyle

AutoScroll: Slow | Medium | Fast
Inuyasha's lullaby
Inuyasha
composed by Kaoru Wada


e|-------5----3----1----0---------|--5--7--8---8---7---5--3--5--------|
B|--3----------------------3-1-3--|--------------------------5--3--2--|
G|--2---------0----------------2--|----------------0------------------|
D|--0-------------------2------0--|-----------------------------------|
A|------------3---------0---------|--------8-------5---------0--------|
E|--------------------------------|-----------------------------------|


|-------5----3----1----0---------|-------------------0----------------------|
|--3----------------------3-1-3--|--3-5-6--5--3--1------3---3---------3-----|
|--2---------0----------------2--|---------------2--------2-----2---2-----2-|
|--0-------------------2------0--|----------------------0---------0---------|
|------------3---------0---------|---------------3--------------------------|
|--------------------------------|------6-----------------------------------|


|----------------------|----------5--3-------1--0------------------|
|-----3---------3------|--3---3----------1------------3----3-----3-|
|---2-----2---2-----2--|----2-----2----0-----0------2--------2-----|
|-0---------0----------|--0-----------------------2-----2--0-------|
|----------------------|-------------3----------0------------------|
|----------------------|-------------------------------------------|


|--5-7--8------8--7-----5-3-5-------------------|
|-------------------0-3-------------------------|
|-----------5-----0-------0---------------------|
|--2------7--------------------0-2--0------2----|
|-------8------8------------0---------0-4----4--|
|-----------------------------------------------|


|---------5--3------1--0----------------|---0-1---0---------0--5-----3-1-----|
|--3---3---------1-----------3---3----3-|-3---------3-1------------3-----3---|
|----2----2----0----0------2-------2----|-----------------0------2---------2-|
|--0---------------------2-----2-0------|-------0-3-----2------0-------------|
|------------3---------0----------------|-3---1-----1-3----------------------|
|---------------------------------------|-------------------0----------------|


|-1--3--5-----8--7-----5--3--5---1--5--3-----|-1-3-5-----8--10-----8--7--5---------|
|-----------1------0-3----0----------------1-|---------1-------0------0------------|
|---------2------0-------------2-0-------0---|-------2-------0---7-----------------|
|-------3--------------------0------0--------|-----3-----7-----------------0--2-0--|
|--------------------------------------3-----|---------------------------0---------|
|--------------------------------------------|-------------------------------------|


|-----0---1-3-5-----8--7-----5-3-|--5------5--3-------0-|
|---2-------------1------0-3---0-|------3---------1-3---|
|---------------2------0---------|----2----2----0-------|
|-------------3-----7------------|--0---3-----2---------|
|-0------------------------------|----------------------|
|--------------------------------|----------------------|


|-1---0---1--3----1--3--5-----5--9--5--0--------|---------5--3-----1--0------------------|
|-----------------1--3----3-5-------------2-----|--3---3---------1----------3--1--3---3--|
|-----3--------0-----------------------------2--|----2----2----0---0------2---------2----|
|---3-----0-------------------------------------|--0--------------------2---------0------|
|-1----------3----------0-----------------------|------------3--------0------------------|
|-----------------------------------------------|----------------------------------------|


|--5-7--8------8--7-----5-3--5------------------|---------5--3-----1--0------------------|
|-----------5-------0-3---0---------------------|--3---3---------1----------3-1--3---3---|
|-----------------0-----------------------------|----2----2----0---0------2--------2---2-|
|--2------7--------------------0--2-0------2----|--0--------------------2--------0-------|
|-------8--------------------0--------0--4----4-|------------3--------0------------------|
|-----------------------------------------------|----------------------------------------|


|-10--12--13--12--10--8------10--8----10-^--|
|-----------------------5-8------------7-|--|
|---------------------5----------------7-|--|
|--------------------------------------0----|
|-------------------------------------------|
|-------------------------------------------|
Login or Register to remove this ad.

3 comments on Inuyasha's Lullaby

Nice and Nostalgic

3

This really hit the right notes and themes to feel like an essential Inuyasha piece, but it would be even better with a bit more notation: rhythm, time signature and measure bars being the biggest.
I know tabs are supposed to be simple and not really sheet music, but putting the notes into the right format can help with a few other things - a few points, often towards the end of your phrases, it feels like the lower part and upper part become desync'd when playing with the recording. For the notes you added to pad out the single voice (which were done well), without rhythm or reference in the recording it's tough to tell what you intended. There's also the significant tempo and mood change about halfway through your fourth bar/phrase that could use some marking.

Normally I wouldn't even rate or comment on tabs that don't have rhythm markings (or whose rhythm isn't obvious), but I really want to like this one because all the hard parts are already done - the notes are there, they just need to be grouped together better to make it easier to read.

Well i for one love this tab.

5

Well i for one love this tab. While others who do not know the tune may need some sort of visual markings to determine the rhythm of the song, anime experts like myself have no trouble playing any anime related song without notation. Furthermore i believe you have captured the true essence of this song and done it justice. Bravo!

heh I'd like to put out rhytm

heh I'd like to put out rhytm and time signatures, but I have no idea how they work tbh ^^;
Yes, I know that I'm really bad at measure bars :/ I'm still trying to figure them out xD