Ads

Ragtime (The Incredible Machine 2) Guitar Tab

Submitted: Feb 01, 2015 by kenor

5
Average: 5 (3 votes)
Download | Listen
Game: The Incredible Machine 2
Composer(s): Timothy Steven Clarke, Randy Dersham, Jan Paul Moorhead, Kenneth Rogers, Christopher Stevens
Style: 2 or more instruments, Transcription

AutoScroll: Slow | Medium | Fast
Rag Time
~The Incredible Machine 2~

Composed by: Christopher Stevens, Tim Clarke et al.
Arranged by: kenor

BPM = 100+


First Guitar
------------


               S S S S S S S S S S S S S S E     S S S S S S S S S S S S S S S S  
E||-------||-------------0---------------0----|------------0---------------0---1-|
B||-------||-----1-2-1-2----------------------|----1-2-1-2-----------------------|
G||-------||*------------------2---0-1--------|------------------2---0-1---------|
D||-------||*--------------2-4---4------------|--------------2-4---4-------------|
A||-------||----------------------------------|----------------------------------|
E||-------||----------------------------------|----------------------------------|


  S S S S S S S S S S S S E  S S    S S S S S S S S S S S S Q       
--L-----1-0---0-1-L-----1-0------|--0-2-5-2-0-----------1-0-------||
------1-----0---------1--------2-|------------2-------1-----------||
----2---------------2------------|--------------2----------------*||
---------------------------------|----------------4-3------------*||
---------------------------------|--------------------------------||
---------------------------------|--------------------------------||


  S S S S S S S S S S S S Q         S S S S S S S S S S S S S S S S  
--0-2-5-2-0-------0-2-4-5------||---0---1---2---1-0-L---1---2---1-0-|
------------2---2--------------||-----------------------------------|
--------------2----------------||*----1---1---1-------1---1---1-----|
-------------------------------||*----------------------------------|
-------------------------------||-----------------------------------|
-------------------------------||-----------------------------------|


  S S S  S  S  S  S  S  S  S  S  S  S S S S    S S S S S S S S S S S S S S S S  
--L-----(0)-2-(0)-------0-----2-------5-2-1-|--0---1---2---1-0-L---1---2---1-0-|
------2-----------1-(2)---(2)---(1)-2-------|----------------------------------|
----2---------------------------------------|----1---1---1-------1---1---1-----|
--------------------------------------------|----------------------------------|
--------------------------------------------|----------------------------------|
--------------------------------------------|----------------------------------|


  S S S S S S S S S S S S S S S S    S  S   S   S  S S S  S   S   S  S S S S S S  
--L-2-5-2---------------5---4---3-|--2-------------3-1-2-------------3-1-2-------|
----------5-2---------------------|------------(2)---------------(2)---------3-2-|
--------------2-------2-----------|--------(3)---------------(3)-----------------|
----------------4-2-4-------------|----(4)---------------(4)---------------4-----|
----------------------------------|----------------------------------------------|
----------------------------------|----------------------------------------------|


  S S S S S S S S S  S  S S Q       S S S S S S S S S S S S S S E   
--------2-------2----------------|----0---------0------------------|
--L-1-2---2---2---2--------------|------2-1-0-2---2-0--------------|
--------------------(2)-4-2-L----|--------------------1------------|
------------4--------------------|----------------------4-2-L-2-4--|
---------------------------------|---------------------------------|
---------------------------------|---------------------------------|


  Q     S  S  S S E   S  S Q         Q    S S  S S E  S  S Q     
-------------11---------17-L-----||---------5-11------0-17-L----|
----------10---------------------||-------1---------------------|
--2-----------------------------*||--2--------------------------|
-------10------------14---------*||-----------------------------|
---------------------------------||-----------------------------|
---------------------------------||-----------------------------|


    S S S S S S S S S S S S S S E     S S S S S S S S S S S S S S S S  
|-------------0---------------0----|------------0---------------0---1-|
|-----1-2-1-2----------------------|----1-2-1-2-----------------------|
|*------------------2---0-1--------|------------------2---0-1---------|
|*--------------2-4---4------------|--------------2-4---4-------------|
|----------------------------------|----------------------------------|
|----------------------------------|----------------------------------|


  S S S S S S S S S S S S E  S S    S S S S S S S S S S S S Q       
--L-----1-0---0-1-L-----1-0------|--0-2-5-2-0-----------1-0-------||
------1-----0---------1--------2-|------------2-------1-----------||
----2---------------2------------|--------------2----------------*||
---------------------------------|----------------4-3------------*||
---------------------------------|--------------------------------||
---------------------------------|--------------------------------||


  S S S S S S S S S S S S Q       S S S  S  E  S  S  E   S  S S  S  S S  
--0-2-5-2-0-------0-2-4-5------|----4-L-----4--L-----4------4-L---------|
------------2---2--------------|--------(5)------(5)----(5)-----(5)-7-5-|
--------------2----------------|----4-L-----4--L-----4------4-L---------|
-------------------------------|----------------------------------------|
-------------------------------|----------------------------------------|
-------------------------------|----------------------------------------|


  S S S  S  E  S  S  E   S  S S  S  S S    S S S  S  E  S  S  E   S  S S  S  S S  
----5-L-----5--L-----5------5-L---------|----4-L-----4--L-----4------4-L---------|
--L-----(5)------(5)----(5)-----(5)-7-5-|--L-----(5)------(5)----(5)-----(5)-7-5-|
----6-L-----6--L-----6------6-L---------|----4-L-----4--L-----4------4-L---------|
----------------------------------------|----------------------------------------|
----------------------------------------|----------------------------------------|
----------------------------------------|----------------------------------------|


  S  S S  S   S  S  S   S S S  S S Q       S S S  S  E  S  S  E   S  S S  S  S S  
-------9------------------0-------------|----4-L-----4--L-----4------4-L---------|
----------------10----------------------|--------(5)------(5)----(5)-----(5)-7-5-|
--8s-9----------------------------------|----4-L-----4--L-----4------4-L---------|
---------10s-11------------------7------|----------------------------------------|
-------------------11s-12---6s-7--------|----------------------------------------|
----------------------------------------|----------------------------------------|


  S S S  S  E  S  S  E   S  S S S E     S S S S S S S S S S S  S S S  S S  
----5-L-----5--L-----5------5-L------|----------------------7-10-L-7-10-7-|
--L-----(5)------(5)----(5)-----9-8--|--7-6-7-6-7---------7---------------|
----6-L-----6--L-----6------6-L------|------------6-7-6-7-----------------|
-------------------------------------|------------------------------------|
-------------------------------------|------------------------------------|
-------------------------------------|------------------------------------|


   S  S  S S S S  S S  E   E   E  E    
--12----10-9---9----------14--17-----||
-----------------12---10-------------||
-----13-------------------11--14-----||
-------------------------------------||
-------------------------------------||
-------------------------------------||


Second Guitar
-------------


     H        E.  E  S E       E  E  E  E  E  E  E  E     E  E  E  E  E  E  E  E   
E||-----------------------||---------------------------|--------------------------|
B||-----------------------||------2--2--------3-----3--|-----2--2--------3-----3--|
G||-----------------------||*-----2--2--------1-----1--|-----2--2--------1-----1--|
D||-----------------------||*-----2--2--------2--2--2--|-----2--2--------2-----2--|
A||-----------------------||---0--------1--2-----------|--0--------1--2-----------|
E||---------------0--2-4--||---------------------------|--------------------0-----|


  Q    Q    Q    Q       S S S S S S S S S S S S S S E     
----------------------|----------------------------------||
----------------------|----------------------------------||
----------------------|------2--------------------------*||
----------------------|--2-4---4-2-----------3-2--------*||
----------------------|------------4-0-----3-------------||
--1----0----1----0----|----------------2-1---------1-0---||


  S S S S S S S S S S S S S S E       E  E  E  E  E  E  S S E   
---------------------------------||----------------------------|
---------------------------------||------3-----3-----3---------|
------2--------------------------||*-----1-----1-----1---------|
--2-4---4-2-------2-1-0----------||*-----2-----2-----2---------|
------------4-0-4-------4---0-1--||---2-----------2------------|
---------------------------------||---------0-----------0-2-4--|


  E  E  E  E  E  E  S S E     E  E  E  E  E  S E  S E     E  E  E  E  E  S S  S  S  E    
---------------------------|---------------------------|--------------------------------|
-----2-----2-----2---------|-----3-----3-----3---------|-----2-----2--------------------|
-----2-----2-----2---------|-----1-----1-----1---------|-----2-----2---------(1)---(0)--|
-----2-----2-----2---------|-----2-----2-----2---------|-----2-----2--------------------|
--0-----------0-------0-1--|--2-----------2------------|--0-----------0--L-0--L---------|
--------0-----------0------|--------0----------0--2-4--|--------0----------------4--3---|


  E  E  E  E  E  E  S S E     E  E  E  E  E  E  S S E     E  E  E  E  E  S S S S E   
---------------------------|---------------------------|----------------------------|
-----2-----2-----2---------|-----2-----2-----2---------|-----3-----3----------------|
-----3-----3-----3---------|-----2-----2-----2---------|-----1-----1----------------|
-----2-----2-----2---------|-----1-----1-----1----0-1--|-----2-----2----------------|
--------4---------------1--|--2-----------2-----2------|--------2-------------------|
--2-----------2-----2-4----|--------2------------------|--0-----------0--L-0-L-0-2--|


  S S S S E  S S S S E  S S E       S S S S E  S S S S E  S S E   
--------0----------5------------||--------0----------5-----------|
--------------------------------||-------------------------------|
------2--------5-6-------------*||------2--------5-6-------------|
-------------------------------*||-------------------------------|
----4---------------------0-1---||----4--------------------------|
--------------------------------||--------------------------2-4--|


    E  E  E  E  E  E  E  E     E  E  E  E  E  E  E  E     Q    Q    Q    Q     
|---------------------------|--------------------------|----------------------|
|------2--2--------3-----3--|-----2--2--------3-----3--|----------------------|
|*-----2--2--------1-----1--|-----2--2--------1-----1--|----------------------|
|*-----2--2--------2--2--2--|-----2--2--------2-----2--|----------------------|
|---0--------1--2-----------|--0--------1--2-----------|----------------------|
|---------------------------|--------------------0-----|--1----0----1----0----|


  S S S S S S S S S S S S S S E       S S S S S S S S S S S S S S E   
----------------------------------||---------------------------------|
----------------------------------||---------------------------------|
------2--------------------------*||------2--------------------------|
--2-4---4-2-----------3-2--------*||--2-4---4-2-------2-1-0-----0-1--|
------------4-0-----3-------------||------------4-0-4-------4--------|
----------------2-1---------1-0---||---------------------------------|


  Q    Q    Q    Q       Q    Q    E  S S S S E     Q    Q    E  S S S S E   
----------------------|--------------------------|--------------------------|
----------------------|--------------------------|--------------------------|
----------------------|--------------------------|--------------------------|
--2----0--------------|--------------------------|--------------------------|
------------4----2----|--0---------0----0---0-1--|--2---------2-------------|
----------------------|-------0------------------|-------0---------0---2-4--|


  E  E  E  E  E  S S S S E     Q    Q    Q    Q       Q    Q    E  S S S S E   
----------------------------|----------------------|--------------------------|
-----2-----2----------------|----------------------|--------------------------|
-----2-----2----------------|----------------------|--------------------------|
-----2--2--2-----------0-1--|--2----0--------------|--------------------------|
--0-----------0----4--------|------------4----2----|--0---------0----0--------|
----------------------------|----------------------|-------0-------------4-3--|


  E  E  E  E  E  E  E  E     E  E  E  E  E  E  E  E    
--------------------------|-----------------5--5-----||
-----2-----2-----3-----3--|-----3-----3-----4--5-----||
-----3-----3-----4-----4--|-----1-----1-----5--6-----||
-----2-----2-----4-----4--|-----2-----2--------------||
--------1-----2-----------|--------------0-----------||
--2-----------------2-----|--0-----4-----------------||


Legend
------
Q - quarter
E - 8th
S - 16th
. - note dotted
L - tied note
(n) - ghost note
s - legato slide
Login or Register to remove this ad.

2 comments on Ragtime

Perfect !

5

I can't expect more ! this is perfect

Holy shit this is gonna be

Holy shit this is gonna be hard to play with a partner haha