Ads

Sweet H-Scene (Imouto Paradise) Guitar Tab

Submitted: Feb 09, 2018 by Ttegdap

0
Download | Listen
Game: Imouto Paradise
Composer(s): Shuzo Aoshima
Style: Arrangement, Fingerstyle

AutoScroll: Slow | Medium | Fast
                                Sweet H-Scene

     E  E  Q    Q    Q       E  E  Q    H            E  E   Q     Q    Q     
E||--------5----7----9----|--9----------7--------|--------------------------|
B||--5--------------------|-----0--6-------------|---9-----10----12---------|
G||--------6--------------|----------------------|----------9----------9----|
D||-----7-----------------|----------------------|------9-------------------|
A||--7--------------------|--8-------------------|--11----------------------|
E||-----------------------|----------------------|--------------------------|


   Q     Q    H           E  E  Q    Q    Q       E  E  Q    Q    Q     
--10----12----9--------|--5-----4----5----9----|--2----------5---------|
-----------------------|--------2--------------|--------3--------------|
---7----------6--------|-----2-----------------|-----2-----------------|
---7----------7--------|--4--------------------|--0---------------0----|
-----------------------|-----------------------|-----------------------|
-----------------------|-----------------------|-----------------------|


  E  E  Q    Q    Q       H.           Q       E  E  Q    Q    Q     
--4-----2----0---------|--0-----------------|--------5----7----9----|
--------0---------3----|--0-----------------|--5--------------------|
-----1-----------------|--1-----------------|--------6--------------|
--2--------------------|--2-----------------|-----7-----------------|
-----------------------|--2------------7----|--7--------------------|
-----------------------|--0-----------------|-----------------------|


  E  E  Q    H            E  E   Q     Q    Q        H        H         
--9----------7--------|--------------------------|--10--------9--------|
-----0--6-------------|---9-----10----12---------|---------------------|
----------------------|----------9----------9----|---7--------6--------|
----------------------|------9-------------------|---7--------7--------|
--8-------------------|--11----------------------|---------------------|
----------------------|--------------------------|---------------------|


  E  E  Q    Q    Q       E  E  Q    Q    Q       E  E  Q    Q    Q     
--5-----4----5----9----|--2----------5---------|--4-----2----0----4----|
--------2--------------|--------3--------------|--------0--------------|
-----2-----------------|-----2-----------------|-----1-----------------|
--4--------------------|--0---------------0----|--2---------------2----|
-----------------------|-----------------------|-----------------------|
-----------------------|-----------------------|-----------------------|


  E  E  H.              E  E   Q    Q     Q        E   E  Q     H         
--5------------------|--9-----------9----12----|----------------9--------|
---------------------|--------12---------------|--10-----------10--------|
--------2------------|-------------------------|----------9-----9--------|
-----2---------------|--------11---------------|------11-----------------|
--0------------------|-----0--------0----------|---9---------------------|
---------------------|--0----------------------|-------------------------|


   E  E  Q    Q     Q       E  E  Q    Q    Q       E  E   Q    Q     Q     
--10-----9----7----------|--7----------0---------|--9-----------9----12----|
---------7---------10----|--------0--------------|--------12---------------|
------7-------7----------|-----------------------|-------------------------|
---0----------------0----|-----6-----------------|--------11---------------|
-------------------------|--7---------------7----|-----0--------0----------|
-------------------------|-----------------------|--0----------------------|


   E   E  Q     Q     Q        E  E  Q    E  E  Q       E  E  Q    H         
----------------9----------|--10-----9----7----------|--5-------------------|
--10-----------10----------|--------------------9----|-------------5--------|
----------9-----9----------|------7--9----------7----|--------6-------------|
------11-------------------|---0-------------9--9----|-----7----------------|
---9-----------------------|--------------7----------|--7-------------------|
---------------------12----|-------------------------|----------------------|


  W                  
--5----------------||
--2----------------||
--2----------------||
--2----------------||
--0----------------||
-------------------||
Login or Register to remove this ad.