Login or Register to remove this ad.

Main Menu (Imouto Paradise) Guitar Tab

Submitted: Nov 18, 2017 by Ramza

5
Average: 5 (1 vote)
Download | Listen
Game: Imouto Paradise
Composer(s): Shuzo Aoshima
Style: Transcription

AutoScroll: Slow | Medium | Fast
Imouto paradise
Imouto paradise main title track (main menu theme)
Composed by Aoshima Shuuzou
Date: 17/11/2017
KEY: D
Tunning: E standard

e----------------------------------------------------------------
B-----------------------------------------------------------7----
G-------7--------7--------7--7--9--7~--7--------7--6--7--9-----7~
D-7--9-----7--9-----7--9------------------7--9-------------------
A----------------------------------------------------------------
E----------------------------------------------------------------


e--------------------------------------12--10--12--10--12--14--12~
B-----------------------------------------------------------------
G-------7--------7--------7--7--9--7~-----------------------------
D-7--9-----7--9-----7--9------------------------------------------
A-----------------------------------------------------------------
E-----------------------------------------------------------------


e----------------------------------------------------------------
B-----------------------------------------------------------7----
G-------7--------7--------7--7--9--7~--7--------7--6--7--9-----7~
D-7--9-----7--9-----7--9------------------7--9-------------------
A----------------------------------------------------------------
E----------------------------------------------------------------


e--------------------------------------13--10----------10--10--10--12--10~
B----------------------------------------------13--10---------------------
G-------7--------7--------7--7--9--7~-------------------------------------
D-7--9-----7--9-----7--9--------------------------------------------------
A-------------------------------------------------------------------------
E-------------------------------------------------------------------------


 ~: vibrato


feel free to add slides and bends yourself
Login or Register to remove this ad.

1 comment on Main Menu

Ah yes. What wholesome

Ah yes. What wholesome content to have tabs for. Brings a tear to my eye