Lance's Memory (Rest) (Illusion of Gaia) Guitar Tab

Submitted: Jul 23, 2011 by diralark

5
Average: 5 (7 votes)
Download | Listen
Game: Illusion of Gaia
Composer(s): Yasuhiro Kawasaki
Style: Arrangement, Fingerstyle

AutoScroll: Slow | Medium | Fast
Lance's Memory (Rest)   from Illusion of Gaia 

Music by Yasuhiro Kawasaki >> arr. for solo guitar by Diralark   

OST : http://www.youtube.com/watch?v=-NWEWD7CN0c                              

Guitar, tempo 130, let ring

     Q    Q    Q    Q       Q    Q    Q    Q       Q    Q    Q    Q       Q    Q    Q    Q     
E||----------------------|----------------------|----------------------|--0-------------------|
B||----------------------|--3-------------------|------------1---------|------------1---------|
G||-------0----2----0----|-------0----2----0----|-------0---------0----|-------0---------0----|
D||--0-------------------|----------------------|----------------------|----------------------|
A||----------------------|----------------------|--3-------------------|----------------------|
E||--3-------------------|----------------------|--3-------------------|----------------------|

Segno
  Q    Q    Q    Q       Q    Q    Q    Q       Q    Q    Q    Q       Q    Q    Q    Q     
----------------------|----------------------|----------------------|--0-------------------|
----------------------|--3-------------------|------------1---------|------------1---------|
-------0----2----0----|-------0----2----0----|-------0---------0----|-------0---------0----|
--0-------------------|----------------------|----------------------|----------------------|
----------------------|----------------------|--3-------------------|----------------------|
--3-------------------|----------------------|--3-------------------|----------------------|


                                                   II  (Bm7)                 
    ^                                              ^                         
    Q    Q    Q    Q       Q    E  E  Q    Q       Q         Q    Q    Q     
|-----------------------|--3-------2------------|---------------------------|
|-------------0----3----|--3---------------0----|--3--------------3---------|
|*-------0---------0----|-------0-----0---------|------------2---------2----|
|*--0-------------------|-----------------------|--4------------------------|
|-----------------------|-----------------------|--2------------------------|
|---3-------------------|-----------------------|---------------------------|


                            ^                                                ^                    
  Q    Q    E  E  E   E     Q    Q    Q    Q       Q    Q    E  E  E   E     Q    Q    Q    Q     
--2----------------------|----------------------|--0----------------------|-----------------2----|
------------3--1--0h--1--|------------1---------|------------3------------|-------1----4---------|
-------2----------2------|-------0---------0----|-------0----5--5--4h--5--|--2-------------------|
-------------------------|--2-------------------|-------------------------|--0-------------------|
-------------------------|--0-------------------|-------------------------|----------------------|
-------------------------|----------------------|-------------------------|----------------------|


                                                                        II  (Bm7)                 
                         ^                                              ^                         
  Q    Q    Q    Q       Q    Q    Q    Q       Q    E  E  Q    Q       Q         Q    Q    Q     
------------2----5----|----------------------|--3-------2-------5----|---------------------------|
--1----4--------------|--3---------0----3----|--3----------0---------|--3--------------3---------|
----------------------|-------0---------0----|-------0----------0----|------------2---------2----|
----------------------|----------------------|-----------------------|--4------------------------|
----------------------|----------------------|-----------------------|--2------------------------|
----------------------|--3-------------------|-----------------------|---------------------------|


                             ^                                                ^                    
  Q    Q    E   E  E   E     Q    Q    Q    Q       Q    Q    E  E  E   E     Q    Q    Q    Q     
--2-----------------------|----------------------|--0----------------------|------------0---------|
------------3p--1--0h--1--|------------1---------|------------3------------|-------1--------------|
-------2-----------2------|-------0---------0----|-------0----5--5--4h--5--|--2--------------2----|
--------------------------|--2-------------------|-------------------------|--0-------------------|
--------------------------|--0-------------------|-------------------------|----------------------|
--------------------------|----------------------|-------------------------|----------------------|


                                         VII        --                   
                         ^                                               
  Q    Q    Q    Q       Q    Q    E  E  E    E     Q    Q    Q    Q     
--3---------5---------|--7---------0--0--7-------|----------------------|
--1----0--------------|-------0--------------10--|--7-------------------|
------------0---------|--0-----------------------|------------7---------|
----------------------|------------------9-------|-------7---------7----|
-----------------7----|--------------------------|----------------------|
----------------------|--8-----------------------|--8-------------------|


   --                                                                         
   ^                                                                          
   Q     Q     E   E  E  E      Q    Q    Q    Q       Q    Q    E  E  E  E   
-------------------------7--|-----------------------|--3----3----3--3-----2--|
--10----10----10--10--------|--10----8----0----3----|---------------1--------|
----------------------7-----|---7----0--------------|------------0-----0-----|
---------------7------7-----|-----------------------|--2---------------------|
----------------------------|---7-------------------|--0---------------------|
---7------------------------|-----------------------|------------------------|


                                                                                           VII      
                                                 ^                         ^               ^        
  Q    Q    Q    Q       E  E  Q    Q    Q       Q    Q      Q    E  E     Q    Q    E  E  E    E   
--0-------------------|-------------0----0----|--3---------3g5-------7--|------------0--0--7-------|
-------3----1---------|--1--0--1----1---------|-------1-----------8-----|-------0--------------10--|
-------0---------0----|--------2--------------|--2----------------------|--0-----------------------|
----------------------|--0--------------------|-------------------------|------------------9-------|
----------------------|-----------------------|-------------------------|--------------------------|
----------------------|-----------------------|-------------------------|--8-----------------------|


  --                      --                                                
                          ^                                                 
  Q    Q    Q    Q        Q     Q     E   E  E  E      Q    Q    Q    Q     
----------------------|-------------------------7--|-----------------------|
--7-------------------|--10----10----10--10--------|--10----8----0----3----|
------------7---------|----------------------7-----|---7----0--------------|
-------7---------7----|---------------7------7-----|-----------------------|
----------------------|----------------------------|---7-------------------|
--8-------------------|---7------------------------|-----------------------|


                                                                          ^                    
  Q    Q    E  E  E  E     Q    Q    Q    Q       E  E  Q    Q    Q       Q    Q    Q    Q     
--3----3----3--3-----2--|--0-------------------|-------------0----0----|--3---------5----3----|
---------------1--------|-------3----1---------|--1--0--1----1---------|-------1--------------|
------------0-----0-----|-------0---------0----|--------2--------------|--2-------------------|
--2---------------------|----------------------|--0--------------------|----------------------|
--0---------------------|----------------------|-----------------------|----------------------|
------------------------|----------------------|-----------------------|----------------------|


                                                II  (Bm7)                   --                   
                                                ^                                                
  Q    Q    Q    Q       Q    Q    Q    Q       Q         Q    Q    Q       Q    Q    Q    Q     
--3-------------------|--0-------------------|---------------------------|--2-------------------|
------------1---------|------------1---------|-----------------3---------|------------3---------|
-------0---------0----|-------0---------0----|------------2---------2----|-------2---------2----|
--2-------------------|----------------------|--4------------------------|----------------------|
--3-------------------|----------------------|--2------------------------|----------------------|
----------------------|----------------------|---------------------------|----------------------|


  ^                                                                                           
  Q    Q    Q    Q       Q    Q    Q    Q       Q    Q    Q    Q       Q    Q    Q    Q       
----------------------|--0-------------------|-----------------0----|--3----2----0----------||
------------1---------|------------1---------|------------1---------|-----------------3-----||
-------0---------0----|-------0---------0----|-------0--------------|----------------------*||
--2-------------------|----------------------|--0-------------------|----------------------*||
--0-------------------|----------------------|----------------------|-----------------------||
----------------------|----------------------|----------------------|-----------------------||

                                                                                    Da Segno
  Q    Q    Q    Q       Q    Q    Q    Q       Q    Q    Q    Q       Q    Q    Q    Q     
----------------------|----------------------|----------------------|--0-------------------|
----------------------|--3-------------------|------------1---------|------------1---------|
-------0----2----0----|-------0----2----0----|-------0---------0----|-------0---------0----|
--0-------------------|----------------------|----------------------|----------------------|
----------------------|----------------------|--3-------------------|----------------------|
--3-------------------|----------------------|--3-------------------|----------------------|

                                                 rall................................. 90
  Q    Q    Q    Q       Q    Q    Q    Q       Q    Q    Q    Q       Q    Q    Q    Q     
----------------------|----------------------|----------------------|--0-------------------|
----------------------|--3-------------------|------------1---------|------------1---------|
-------0----2----0----|-------0----2----0----|-------0---------0----|-------0---------0----|
--0-------------------|----------------------|----------------------|----------------------|
----------------------|----------------------|--3-------------------|----------------------|
--3-------------------|----------------------|--3-------------------|----------------------|


   W                    H        H          
--(3)----------------|--------------------||
---------------------|--------------------||
---------------------|--------------------||
---0-----------------|--L-----------------||
---------------------|--------------------||
---3-----------------|--L-----------------||

Legend
---------------
W - whole
H - half
Q - quarter
E - 8th
. - note dotted
L - tied note
(n) - ghost note
h - hammer on
p - pull off
^ - brush up
Login or Register to remove this ad.

2 comments on Lance's Memory (Rest)

Beautiful song

5

Beautiful song

Yep this game has nice tune :

Yep this game has nice tune : I love especially this one : http://www.gametabs.net/illusion-of-gaia/blessing-of-nature