Ads

Fanfare (Illusion of Gaia) Guitar Tab

Submitted: Dec 10, 2012 by Kain (Last updated: Dec 10, 2012)

0
Download | Listen
Game: Illusion of Gaia
Composer(s): Yasuhiro Kawasaki
Style: 2 or more instruments, Alternate picking, Transcription

AutoScroll: Slow | Medium | Fast
Fanfare - Illusion of Gaia
Yasuhiro Kawasaki
Tabbed by Kain (Matt Deakins)
12/10/2012

e------10-------12-10-8/15--L---L-------------------
B--8-8---------------------------------------------
G--------------------------------------------------
D------------------------------------17-17-17-17-17
A--------------------------------------------------
E--------------------------------------------------
|
e------10----------------8-7-5/15------------------
B--8-8---------------------------------------------
G--------------------------------------------------
D--------------------------------------------------
A------------------------------------10-10-10-10-10
E--------------------------------------------------
Login or Register to remove this ad.