Ads

Yakusoku (The [email protected]) Guitar Tab

Submitted: Apr 04, 2014 by corntastic

3.666665
Average: 3.7 (3 votes)
Download | Listen
Game: The [email protected]
Composer(s): Ryuuichi Takada
Style: Transcription

AutoScroll: Slow | Medium | Fast
Yakusoku
THE [email protected]
Koji Nakagawa, Keiki Kobayashi, Chihaya Kisaragi (cv: Asami Imai)
http://vgmdb.net/album/30805

corntastic
1 4 2014


e-----------1------------------------------------------------------------------
B--3-----------1--------1--3--4----3--1----------------4----3--1------------1--
G------------------------------------------3--3---------------------3--3-------
D------------------------------------------------------------------------------
A------------------------------------------------------------------------------
E------------------------------------------------------------------------------

e--------1----1----1----1--1-------------------1--------------------------
B--3--4-------------------------4----3----4------------------1------------
G-------------------------------------------------------3-------3---------
D-------------------------------------------------------------------------
A-------------------------------------------------------------------------
E-------------------------------------------------------------------------

e-------------------------------------------------------------------------
B-----1--3----3----3----3--3----4----3---------1--------------------------
G--3--------------------------------------2-------------3----2--3---------
D-------------------------------------------------------------------------
A-------------------------------------------------------------------------
E-------------------------------------------------------------------------

e--3----3----3----3--3----5----5----6-------------------------------------
B----------------------------------------6--------3----1------------------
G-----------------------------------------------------------3-------------
D-------------------------------------------------------------------------
A-------------------------------------------------------------------------
E-------------------------------------------------------------------------

e-----------------1-------------------------------------------------------
B--4----3----4---------------------------1--3--------4------3----1--------
G------------------------3------------3-----------------------------------
D-------------------------------------------------------------------------
A-------------------------------------------------------------------------
E-------------------------------------------------------------------------

______________________________________________________________________________________


e-------8----5--6--------6--5-------5----6----6---------------------------
B--3-----------------------------8----------------------------------------
G-------------------------------------------------------------------------
D-------------------------------------------------------------------------
A-------------------------------------------------------------------------
E-------------------------------------------------------------------------

e-------8----6--------6--8----6--8----10----10----------------------------
B--6----------------------------------------------------------------------
G-------------------------------------------------------------------------
D-------------------------------------------------------------------------
A-------------------------------------------------------------------------
E-------------------------------------------------------------------------

e--11----10-----------------------8--------------8----6-------------------
B--------------10----11--------6-------10--10-----------------------------
G-------------------------------------------------------------------------
D-------------------------------------------------------------------------
A-------------------------------------------------------------------------
E-------------------------------------------------------------------------

		play x2
e----------6-----------------6----|-------8--------6-----------------------
B--8--10--------10--8----10-------|--6---------10--------------------------
G---------------------------------|----------------------------------------
D---------------------------------|----------------------------------------
A---------------------------------|----------------------------------------
E---------------------------------|----------------------------------------

repeat this section then play the whole thing again.
Login or Register to remove this ad.

1 comment on Yakusoku

It's great ! However, it

It's great !

However, it would be easier to play the last 2 lines in this manner IMO :

e--11----10-----------------------8--------------8------------------------
B--------------10----11----------------10--10---------11------------------
G-----------------------------10------------------------------------------
D-------------------------------------------------------------------------
A-------------------------------------------------------------------------
E-------------------------------------------------------------------------

		play x2
e---------------------------------|-------8--------------------------------
B--8--10--11----10--8----10--11---|------------10--11----------------------
G---------------------------------|--10------------------------------------
D---------------------------------|----------------------------------------
A---------------------------------|----------------------------------------
E---------------------------------|----------------------------------------

:)