Ads

Sora (The [email protected]) Guitar Tab

Submitted: Apr 04, 2014 by corntastic

3
Average: 3 (2 votes)
Download | Listen
Game: The [email protected]
Composer(s): Ryuuichi Takada
Style: Transcription

AutoScroll: Slow | Medium | Fast
Sora
THE [email protected]
Satoru Kosaki, Kotori Otonashi (cv: Juri Takita)

corntastic
3/4/2014
______________________________________________________________________________________


e-------------------------------------------------------------------------
B-------------------------------------------------------------------------
G-------------------------------------------------------------------------
D-------------------------------------------------------------------------
A-------------------------------------------------------------------------
E-------------------------------------------------------------------------

e------------------------------1----3----1--------------------------------
B--4--4--4--2--1--2--4----4-------------------4--4------------------------
G-------------------------------------------------------------------------
D-------------------------------------------------------------------------
A-------------------------------------------------------------------------
E-------------------------------------------------------------------------

e--1--3--4--------4----3----1---------1----1----------------1--2--1-------
B--------------------------------4--------------4--4-----------------4----
G-------------------------------------------------------------------------
D-------------------------------------------------------------------------
A-------------------------------------------------------------------------
E-------------------------------------------------------------------------

e------------------------------1----3----1--------------------------------
B--4--4--4--2--1--2--4----4-------------------4--4------------------------
G-------------------------------------------------------------------------
D-------------------------------------------------------------------------
A-------------------------------------------------------------------------
E-------------------------------------------------------------------------

e--1--3--4--------4----3---------3----6----6----4--4----------------------
B---------------------------6---------------------------------------------
G-------------------------------------------------------------------------
D-------------------------------------------------------------------------
A-------------------------------------------------------------------------
E-------------------------------------------------------------------------

______________________________________________________________________________________


e------------------8--6----6--8---6------------------------6--4----4--6---4------
B--6--6--6--6--6----------------------6----4--4--4--4--4----------------------4--
G--------------------------------------------------------------------------------
D--------------------------------------------------------------------------------
A--------------------------------------------------------------------------------
E--------------------------------------------------------------------------------

e------------------4--3----3--1----3----6----6----8--8--------------------
B--2--2--2--2--2----------------------------------------------------------
G-------------------------------------------------------------------------
D-------------------------------------------------------------------------
A-------------------------------------------------------------------------
E-------------------------------------------------------------------------

e------------------8--6----6--8---6----------------------6--5----6--8------------
B--6--6--6--6--6----------------------6----4--4--4---4-----------------6---------
G--------------------------------------------------------------------------------
D--------------------------------------------------------------------------------
A--------------------------------------------------------------------------------
E--------------------------------------------------------------------------------

    play x4
e-----3--4-------|--4--6--8--8----6--6----4--6-----------------------------
B--6-------------|---------------------------------------------------------
G----------------|---------------------------------------------------------
D----------------|---------------------------------------------------------
A----------------|---------------------------------------------------------
E----------------|---------------------------------------------------------

______________________________________________________________________________________


e-----------6--6--4--4--3--3--4--4--6--4--6--8----------------------------
B--4--4--4----------------------------------------------------------------
G-------------------------------------------------------------------------
D-------------------------------------------------------------------------
A-------------------------------------------------------------------------
E-------------------------------------------------------------------------

e-----------6--6--4----3--3--4--4--6--4--6--8-----------------------------
B--4--4--4----------------------------------------------------------------
G-------------------------------------------------------------------------
D-------------------------------------------------------------------------
A-------------------------------------------------------------------------
E-------------------------------------------------------------------------

e--8--8--8----4---4----4------8----4---4----4-----------------------------
B-------------------------------------------------------------------------
G-------------------------------------------------------------------------
D-------------------------------------------------------------------------
A-------------------------------------------------------------------------
E-------------------------------------------------------------------------

e--------------------6--6--8--9--8--6-------------------------------------
B--6--6----8----9---------------------------------------------------------
G-------------------------------------------------------------------------
D-------------------------------------------------------------------------
A-------------------------------------------------------------------------
E-------------------------------------------------------------------------


e-----------6--6--4----3----4----6--4--6--8-------------------------------
B--4--4--4----------------------------------------------------------------
G-------------------------------------------------------------------------
D-------------------------------------------------------------------------
A-------------------------------------------------------------------------
E-------------------------------------------------------------------------

e-----------6--6--4--4--3----4----6--4--6--8------------------------------
B--4--4--4----------------------------------------------------------------
G-------------------------------------------------------------------------
D-------------------------------------------------------------------------
A-------------------------------------------------------------------------
E-------------------------------------------------------------------------

e--8--8--8----4---4-----4------8----4---4-----4---------------------------
B--------------------4---------------------4------------------------------
G-------------------------------------------------------------------------
D-------------------------------------------------------------------------
A-------------------------------------------------------------------------
E-------------------------------------------------------------------------

e----------------------6--6--8----6---------------------------------------
B-----6--6--8--8--9--------------------9----8--8----9--9------------------
G--8----------------------------------------------------------------------
D-------------------------------------------------------------------------
A-------------------------------------------------------------------------
E-------------------------------------------------------------------------

e-----9----8-------6------------------------------------------------------
B--9------------9-------9-------------------------------------------------
G-------------------------------------------------------------------------
D-------------------------------------------------------------------------
A-------------------------------------------------------------------------
E-------------------------------------------------------------------------
Login or Register to remove this ad.