Ads

Nemuri Hime (The [email protected]) Guitar Tab

Submitted: Apr 27, 2014 by corntastic

3
Average: 3 (2 votes)
Download | Listen
Game: The [email protected]
Composer(s): Ryuuichi Takada
Style: Transcription

This song is also called Sleeping Beauty

AutoScroll: Slow | Medium | Fast
Nemuri Hime
THE [email protected]
Go Shiina, Chihaya Kisaragi (cv: Asami Imai)
http://vgmdb.net/album/31040

corntastic
21 4 14


I would appreciate written feedback on these tabs.

0:33
e-----------5--3-----3--7----5--3----3--5---------------------------------
B--0--5--7--------7-------------------------------------------------------
G-------------------------------------------------------------------------
D-------------------------------------------------------------------------
A-------------------------------------------------------------------------
E-------------------------------------------------------------------------

e-----3--2--5--3--2--3--2-------------------------------------------------
B--1-------------------------5--3----5--3--1------------------------------
G-------------------------------------------------------------------------
D-------------------------------------------------------------------------
A-------------------------------------------------------------------------
E-------------------------------------------------------------------------

e-------0----5----7----------10----8--7----8--7--5----0--3--2--3--5-------
B--0-----------------7----------------------------------------------------
G-------------------------7-----------------------------------------------
D-------------------------------------------------------------------------
A-------------------------------------------------------------------------
E-------------------------------------------------------------------------

0:45
e-----------5--3-----3--7----5--3----3--5---------------------------------
B--0--5--7--------7-------------------------------------------------------
G-------------------------------------------------------------------------
D-------------------------------------------------------------------------
A-------------------------------------------------------------------------
E-------------------------------------------------------------------------

e-----3--2--5--3--2--3--10----8--7----8--7--5-----------------------------
B--1----------------------------------------------------------------------
G-------------------------------------------------------------------------
D-------------------------------------------------------------------------
A-------------------------------------------------------------------------
E-------------------------------------------------------------------------

e-------0----5----7----------10----8--7----8--7--5----0--3--2--3--5-------
B--0-----------------7----------------------------------------------------
G-------------------------7-----------------------------------------------
D-------------------------------------------------------------------------
A-------------------------------------------------------------------------
E-------------------------------------------------------------------------

______________________________________________________________________________________

0:57
e--3--------------------------------3--2----------------------------------
B-----------0--0--------0--1--0--1--------------0--0----------------------
G-------------------------------------------------------------------------
D-------------------------------------------------------------------------
A-------------------------------------------------------------------------
E-------------------------------------------------------------------------

e--0--2--3--3----2--3--5-------10---5---8----7----5----3------------------
B---------------------------3---------------------------------------------
G-------------------------------------------------------------------------
D-------------------------------------------------------------------------
A-------------------------------------------------------------------------
E-------------------------------------------------------------------------

e--0--2--3------3---2--3--5----3--5--7----3--5s4s5------------------------
B-----------0-------------------------------------------------------------
G-------------------------------------------------------------------------
D-------------------------------------------------------------------------
A-------------------------------------------------------------------------
E-------------------------------------------------------------------------

1:14
e-----0--2-------3--2--5--3--2--3--7----5--3----5--3----------------------
B--0----------0-----------------------------------------------------------
G-------------------------------------------------------------------------
D-------------------------------------------------------------------------
A-------------------------------------------------------------------------
E-------------------------------------------------------------------------

e-----0--2--5--3--2--3--7----5--3----5--3---------------------------------
B--0----------------------------------------------------------------------
G-------------------------------------------------------------------------
D-------------------------------------------------------------------------
A-------------------------------------------------------------------------
E-------------------------------------------------------------------------
______________________________________________________________________________________

1:21
e-------4--5--------7--5--------------------------------------------------
B--2----------------------------------------------------------------------
G-------------------------------------------------------------------------
D-------------------------------------------------------------------------
A-------------------------------------------------------------------------
E-------------------------------------------------------------------------

e--0---------------0----7----9--------7--5--------------------------------
B-----------0-------------------------------------------------------------
G-----7--6------6---------------------------------------------------------
D-------------------------------------------------------------------------
A-------------------------------------------------------------------------
E-------------------------------------------------------------------------

e--12---10---9---7---9---10-----------------12----------------------------
B-----------------------------9---10------------10------------------------
G-------------------------------------------------------------------------
D-------------------------------------------------------------------------
A-------------------------------------------------------------------------
E-------------------------------------------------------------------------

1:38
e--0--------------------4--5----7----9----10----12---10---9--------9---10-----------
B-----------0-------0-----------------------------------------12------------9---10--
G-----7--6------6-------------------------------------------------------------------
D-----------------------------------------------------------------------------------
A-----------------------------------------------------------------------------------
E-----------------------------------------------------------------------------------

e-----------------------------9-------9----10--12----10--9----------------
B--10--10--10--12--10--9--10------12------------------------12--10--------
G-------------------------------------------------------------------------
D-------------------------------------------------------------------------
A-------------------------------------------------------------------------
E-------------------------------------------------------------------------

e-------------------------------------9----10----7------9--7--------------
B--7--7--9--10-------------------10---------------------------10s9s10-----
G---------------7--------6---7--------------------------------------------
D-------------------------------------------------------------------------
A-------------------------------------------------------------------------
E-------------------------------------------------------------------------

______________________________________________________________________________________

2:10
e-----------5--3-----3--7----5--3----3--5---------------------------------
B--0--5--7--------7-------------------------------------------------------
G-------------------------------------------------------------------------
D-------------------------------------------------------------------------
A-------------------------------------------------------------------------
E-------------------------------------------------------------------------

e-----3--2--5--3--2--3--2-------------------------------------------------
B--1-------------------------5--3----5--3--1------------------------------
G-------------------------------------------------------------------------
D-------------------------------------------------------------------------
A-------------------------------------------------------------------------
E-------------------------------------------------------------------------

e-------0----5----7----------10----8--7----8--7--5----0--3--2--3--5-------
B--0-----------------7----------------------------------------------------
G-------------------------7-----------------------------------------------
D-------------------------------------------------------------------------
A-------------------------------------------------------------------------
E-------------------------------------------------------------------------

2:22
e--7---------5--3-----3--7----5--3----3--5--------------------------------
B------5--7--------7------------------------------------------------------
G-------------------------------------------------------------------------
D-------------------------------------------------------------------------
A-------------------------------------------------------------------------
E-------------------------------------------------------------------------

e-----3--2--5--3--2--3--2-------------------------------------------------
B--1-------------------------5--3----5--3--1------------------------------
G-------------------------------------------------------------------------
D-------------------------------------------------------------------------
A-------------------------------------------------------------------------
E-------------------------------------------------------------------------

e-------0----5----7----------10----8--7----8--7--5----0--3--2--3--5-------
B--0-----------------7----------------------------------------------------
G-------------------------7-----------------------------------------------
D-------------------------------------------------------------------------
A-------------------------------------------------------------------------
E-------------------------------------------------------------------------

______________________________________________________________________________________

2:34
e--3---------------------------3---2--------------------------------------
B-----------0--0--------0--1----------------0--0--------------------------
G-------------------------------------------------------------------------
D-------------------------------------------------------------------------
A-------------------------------------------------------------------------
E-------------------------------------------------------------------------

e--3-----------------------------7--5----3----2---------------------------
B-----------0--0--------0--0-----------------------3----------------------
G-----------------------------5-------------------------------------------
D-------------------------------------------------------------------------
A-------------------------------------------------------------------------
E-------------------------------------------------------------------------

e--3--2--3------3---2--3--5----3--5--7----3--5s4s5------------------------
B-----------0-------------------------------------------------------------
G-------------------------------------------------------------------------
D-------------------------------------------------------------------------
A-------------------------------------------------------------------------
E-------------------------------------------------------------------------

2:51
e-----0--2-------3--2--5--3--2--3--7----5--3----5--3----------------------
B--0----------0-----------------------------------------------------------
G-------------------------------------------------------------------------
D-------------------------------------------------------------------------
A-------------------------------------------------------------------------
E-------------------------------------------------------------------------

e-----0--2--5--3--2--3--7----5--3----5--3---------------------------------
B--1----------------------------------------------------------------------
G-------------------------------------------------------------------------
D-------------------------------------------------------------------------
A-------------------------------------------------------------------------
E-------------------------------------------------------------------------

______________________________________________________________________________________

3:00
e-------4--5--------7--5--------------------------------------------------
B--2----------------------------------------------------------------------
G-------------------------------------------------------------------------
D-------------------------------------------------------------------------
A-------------------------------------------------------------------------
E-------------------------------------------------------------------------

e--0---------------0----7----9--------7--5--------------------------------
B-----------0-------------------------------------------------------------
G-----7--6------6---------------------------------------------------------
D-------------------------------------------------------------------------
A-------------------------------------------------------------------------
E-------------------------------------------------------------------------

e--12---10---9---7---9---10-----------------12----------------------------
B-----------------------------9--10-------------10------------------------
G-------------------------------------------------------------------------
D-------------------------------------------------------------------------
A-------------------------------------------------------------------------
E-------------------------------------------------------------------------

3:17
e--0--------------------4--5----7----9----10----12---10---9--------9---10-----------
B-----------0-------0-----------------------------------------12------------9---10--
G-----7--6------6-------------------------------------------------------------------
D-----------------------------------------------------------------------------------
A-----------------------------------------------------------------------------------
E-----------------------------------------------------------------------------------

e-----------------------------9-------9----10--12----10--9----------------
B--10--10--10--12--10--9--10------12------------------------12--10--------
G-------------------------------------------------------------------------
D-------------------------------------------------------------------------
A-------------------------------------------------------------------------
E-------------------------------------------------------------------------

e--------------------------------------9----10----7------9--7-------------
B--7--9--10----------------------10----------------------------10--10-----
G-------------7--7--------6---7-------------------------------------------
D-------------------------------------------------------------------------
A-------------------------------------------------------------------------
E-------------------------------------------------------------------------

______________________________________________________________________________________

3:39
e---------7-------7------7------7-----10---9--7----9--10--12--------------
B--9--10-------------10-----10---------------------------------12--10-----
G--------------9-------------------9--------------------------------------
D-------------------------------------------------------------------------
A-------------------------------------------------------------------------
E-------------------------------------------------------------------------

e---------------9---10--9--------10---------------------------------------
B--12--10---12-----------------------10-----------------------------------
G-------------------------------------------------------------------------
D-------------------------------------------------------------------------
A-------------------------------------------------------------------------
E-------------------------------------------------------------------------

e--10---10--12--10--9--10--9-----------10---9---10---12---9-------9-------
B------------------------------10-----------------------------12-----10---
G----------------------------------10-------------------------------------
D-------------------------------------------------------------------------
A-------------------------------------------------------------------------
E-------------------------------------------------------------------------

e---------------------------------9--------9----------10----9-------------
B--10--10--10----9--10--10----12-----10---------12---------------10-------
G-------------------------------------------------------------------------
D-------------------------------------------------------------------------
A-------------------------------------------------------------------------
E-------------------------------------------------------------------------

______________________________________________________________________________________

4:22
e-------2--3--------5--3--------------------------------------------------
B--3----------------------------------------------------------------------
G-------------------------------------------------------------------------
D-------------------------------------------------------------------------
A-------------------------------------------------------------------------
E-------------------------------------------------------------------------

e------------------0--5---7----5--3---------------------------------------
B--3--1--0--1---1---------------------------------------------------------
G-------------------------------------------------------------------------
D-------------------------------------------------------------------------
A-------------------------------------------------------------------------
E-------------------------------------------------------------------------

e--10---8---7--------7---8---10----12---10---9--------9---------------------
B---------------10-------------------------------12--------9--10----12--10--
G---------------------------------------------------------------------------
D---------------------------------------------------------------------------
A---------------------------------------------------------------------------
E---------------------------------------------------------------------------

4:41
e--0---------------0----7----9------------12------------------------------
B-----------0-------------------------10----------------------------------
G-----7--6------6---------------------------------------------------------
D-------------------------------------------------------------------------
A-------------------------------------------------------------------------
E-------------------------------------------------------------------------

e------10---9---7---9---10------------7-----------------------------------
B----------------------------9--10-------10-------------------------------
G--9----------------------------------------------------------------------
D-------------------------------------------------------------------------
A-------------------------------------------------------------------------
E-------------------------------------------------------------------------

e--0--------------------4--5----7----9----10----12---10---9--------9---10---12------
B-----------0-------0-----------------------------------------12----------------10--
G-----7--6------6-------------------------------------------------------------------
D-----------------------------------------------------------------------------------
A-----------------------------------------------------------------------------------
E-----------------------------------------------------------------------------------

5:01
e-----------------------------9-------9----10--12----10--9----------------
B--10--10--10--12--10--9--10------12------------------------12--10--------
G-------------------------------------------------------------------------
D-------------------------------------------------------------------------
A-------------------------------------------------------------------------
E-------------------------------------------------------------------------

e----------------10---------------------9----10----7-------12--12---------
B--7--9--10-----------------------10--------------------------------------
G-------------7------------6---7------------------------------------------
D-------------------------------------------------------------------------
A-------------------------------------------------------------------------
E-------------------------------------------------------------------------
Login or Register to remove this ad.

1 comment on Nemuri Hime

The [email protected] ! :D The whole

The [email protected] ! :D

The whole tab looks quite good. I only have one thing to say, I'd play the first "line" of the tab (which appears again later) in this manner rather than what has been written :

0:33
e-----------5-----------7----5--3----3--5---------------------------------
B--0--5--7-----8--7--8----------------------------------------------------
G-------------------------------------------------------------------------
D-------------------------------------------------------------------------
A-------------------------------------------------------------------------
E-------------------------------------------------------------------------

It is an easier way to play the same notes :)