Ads

MOONY (The [email protected]) Guitar Tab

Submitted: Jun 13, 2014 by corntastic (Last updated: Jul 23, 2014)

0
Download | Listen
Game: The [email protected]
Composer(s): Ryuuichi Takada
Style: Transcription

AutoScroll: Slow | Medium | Fast
MOONY
The [email protected]
Funta7, 765 PRO
corntastic
16 5 14


e--------------------3--4--6----------------------------------------------
B-----------3--4--6-------------------------------------------------------
G-----3--5----------------------------------------------------------------
D--6----------------------------------------------------------------------
A-------------------------------------------------------------------------
E-------------------------------------------------------------------------


e-----3-----3----3---3---3--6---4-----------------------------------------
B--6-----6----------------------------------------------------------------
G-------------------------------------------------------------------------
D-------------------------------------------------------------------------
A-------------------------------------------------------------------------
E-------------------------------------------------------------------------

e-----3-----3----3---3---3--6--3--4---------------------------------------
B--6-----6----------------------------------------------------------------
G-------------------------------------------------------------------------
D-------------------------------------------------------------------------
A-------------------------------------------------------------------------
E-------------------------------------------------------------------------

e-----3-----3----3--6--3--6-------3-----3----11---------------------------
B--6-----6---------------------6-----6------------------------------------
G-------------------------------------------------------------------------
D-------------------------------------------------------------------------
A-------------------------------------------------------------------------
E-------------------------------------------------------------------------

______________________________________________________________________________________


e--3---6---8----6--6----8---6---------------------------------------------
B-------------------------------8---6---6----4--4-------------------------
G-------------------------------------------------------------------------
D-------------------------------------------------------------------------
A-------------------------------------------------------------------------
E-------------------------------------------------------------------------

e--3---6---6---4--4----6---4---3------------------------------------------
B----------------------------------6---4----3--3--------------------------
G-------------------------------------------------------------------------
D-------------------------------------------------------------------------
A-------------------------------------------------------------------------
E-------------------------------------------------------------------------

e--3---6---8----6--6----8---6---------------------------------------------
B-------------------------------8---6---6----4--4-------------------------
G-------------------------------------------------------------------------
D-------------------------------------------------------------------------
A-------------------------------------------------------------------------
E-------------------------------------------------------------------------

e--3--------------3--------3----------------------------------------------
B-----6---4----4------6-------6---4---------------------------------------
G-------------------------------------------------------------------------
D-------------------------------------------------------------------------
A-------------------------------------------------------------------------
E-------------------------------------------------------------------------

______________________________________________________________________________________


e---------------------------3-----------3----3----------------------------
B--3---4---6----6---4---6-------4---6------------6--4---------------------
G-------------------------------------------------------------------------
D-------------------------------------------------------------------------
A-------------------------------------------------------------------------
E-------------------------------------------------------------------------

e---------------------------3--3-----------3------------------------------
B--3---4---6----6---4---6----------4---6----------------------------------
G-------------------------------------------------------------------------
D-------------------------------------------------------------------------
A-------------------------------------------------------------------------
E-------------------------------------------------------------------------

e--3---6---8----8---6---8---6---------------------------------------------
B-------------------------------8---6---8----8--8--8--6--4----------------
G-------------------------------------------------------------------------
D-------------------------------------------------------------------------
A-------------------------------------------------------------------------
E-------------------------------------------------------------------------

e--------------------------3----------------------------------------------
B--3--4---4----3--4---6-------6---4---------------------------------------
G-------------------------------------------------------------------------
D-------------------------------------------------------------------------
A-------------------------------------------------------------------------
E-------------------------------------------------------------------------

______________________________________________________________________________________


e--3---6---8----6--6----8---6---------------------------------------------
B-------------------------------8---6---6----4--4-------------------------
G-------------------------------------------------------------------------
D-------------------------------------------------------------------------
A-------------------------------------------------------------------------
E-------------------------------------------------------------------------

e--3---6---6---4--4----6---4---3------------------------------------------
B----------------------------------6---4----3--3--------------------------
G-------------------------------------------------------------------------
D-------------------------------------------------------------------------
A-------------------------------------------------------------------------
E-------------------------------------------------------------------------

e--3---6---8----6--6----8---6---------------------------------------------
B-------------------------------8---6---6----4--4-------------------------
G-------------------------------------------------------------------------
D-------------------------------------------------------------------------
A-------------------------------------------------------------------------
E-------------------------------------------------------------------------

e--3--------------3--------3----------------------------------------------
B-----6---4----4------6-------6---4---------------------------------------
G-------------------------------------------------------------------------
D-------------------------------------------------------------------------
A-------------------------------------------------------------------------
E-------------------------------------------------------------------------

______________________________________________________________________________________


e--(6)--(4)---------------------------------------------------------------
B-------------------------------------------------------------------------
G-------------------------------------------------------------------------
D-------------------------------------------------------------------------
A-------------------------------------------------------------------------
E-------------------------------------------------------------------------

e-----------------------------------------------(6)-(4)-------------------
B------------4---6--------4---3----6----4---(4)---------------------------
G---5----5----------------------------------------------------------------
D-------------------------------------------------------------------------
A-------------------------------------------------------------------------
E-------------------------------------------------------------------------

e--3----3---6---4--------3-------(3)-(6)--(6)-(4)-(3)---------------------
B----------------------------6------------------------(6)-----------------
G-------------------------------------------------------------------------
D-------------------------------------------------------------------------
A-------------------------------------------------------------------------
E-------------------------------------------------------------------------

e------------------------------------------(6)-(4)------------------------
B---------4---6------4---3----6----4---(4)--------------------------------
G--5----------------------------------------------------------------------
D-------------------------------------------------------------------------
A-------------------------------------------------------------------------
E-------------------------------------------------------------------------

e--3----3---6---4--------3------(3)--(6)----------------------------------
B----------------------------6--------------------------------------------
G-------------------------------------------------------------------------
D-------------------------------------------------------------------------
A-------------------------------------------------------------------------
E-------------------------------------------------------------------------

______________________________________________________________________________________


e------------------10---10--11--------------------------------------------
B------11-----------------------------------------------------------------
G--7/----------10---------------------------------------------------------
D----------12-------------------------------------------------------------
A-------------------------------------------------------------------------
E-------------------------------------------------------------------------

e--13----11--11----10----10--11--10-11-10---------------------------------
B-----------------------------------------13-11b13------------------------
G-------------------------------------------------------------------------
D-------------------------------------------------------------------------
A-------------------------------------------------------------------------
E-------------------------------------------------------------------------

e-------------------------------------------------------------------------
B---------11-11-----------------------------------------------------------
G--10b12--------r10-------------------------------------------------------
D--------------------13----13--15--13\------------------------------------
A-------------------------------------------------------------------------
E-------------------------------------------------------------------------

e--------------------------------------------10---11--13b15--13b15---13---
B------------------------11--11b13---11--13-------------------------------
G----------------10--13---------------------------------------------------
D--------10--13-----------------------------------------------------------
A--10s11------------------------------------------------------------------
E-------------------------------------------------------------------------

e--------------------------10--11---10---11---11s13---11--10--------------
B------------------11--13-------------------------------------------------
G--10------12--13---------------------------------------------------------
D-------------------------------------------------------------------------
A-------------------------------------------------------------------------
E-------------------------------------------------------------------------

e--11---10---11---13s15----13---11----------------------------------------
B------------------------------------13-----------------------------------
G-------------------------------------------------------------------------
D-------------------------------------------------------------------------
A-------------------------------------------------------------------------
E-------------------------------------------------------------------------

e-------------------------------------15------15--16--15--16--18b20---18--
B--------15---16--15--16--18--16--18------18------------------------------
G--/17--------------------------------------------------------------------
D-------------------------------------------------------------------------
A-------------------------------------------------------------------------
E-------------------------------------------------------------------------

e---------18--------------------------------------------------------------
B--18b20------r18---16----------------------------------------------------
G-------------------------------------------------------------------------
D-------------------------------------------------------------------------
A-------------------------------------------------------------------------
E-------------------------------------------------------------------------

______________________________________________________________________________________


e--3---6---8----6--6----8---6---------------------------------------------
B-------------------------------8---6---6----4--4-------------------------
G-------------------------------------------------------------------------
D-------------------------------------------------------------------------
A-------------------------------------------------------------------------
E-------------------------------------------------------------------------

e--3---6---6---4--4----6---4---3------------------------------------------
B----------------------------------6--6---4----3--3-----------------------
G-------------------------------------------------------------------------
D-------------------------------------------------------------------------
A-------------------------------------------------------------------------
E-------------------------------------------------------------------------

e--3---6---8----6--6----8---6---------------------------------------------
B-------------------------------8---6---6----4--4-------------------------
G-------------------------------------------------------------------------
D-------------------------------------------------------------------------
A-------------------------------------------------------------------------
E-------------------------------------------------------------------------

e--3--------------3--------3----------------------------------------------
B-----6---4----4------6-------6---4---------------------------------------
G-------------------------------------------------------------------------
D-------------------------------------------------------------------------
A-------------------------------------------------------------------------
E-------------------------------------------------------------------------

______________________________________________________________________________________


e---------------------------3--3----------3----3--3-----------------------
B--3---4---6----6---4---6---------4---6---------------6--4----------------
G-------------------------------------------------------------------------
D-------------------------------------------------------------------------
A-------------------------------------------------------------------------
E-------------------------------------------------------------------------

e---------------------------3--3-----------3------------------------------
B--3---4---6----6---4---6----------4---6----------------------------------
G-------------------------------------------------------------------------
D-------------------------------------------------------------------------
A-------------------------------------------------------------------------
E-------------------------------------------------------------------------

e--3---6---8----8---6---8---6---------------------------------------------
B-------------------------------8---6---8----8--8--8--6--4----------------
G-------------------------------------------------------------------------
D-------------------------------------------------------------------------
A-------------------------------------------------------------------------
E-------------------------------------------------------------------------

e--------------------------3----------------------------------------------
B--3--4---4----3--4---6-------6---4---------------------------------------
G-------------------------------------------------------------------------
D-------------------------------------------------------------------------
A-------------------------------------------------------------------------
E-------------------------------------------------------------------------

______________________________________________________________________________________


e--3---6---8----6--6----8---6---------------------------------------------
B-------------------------------8---6---6----4--4-------------------------
G-------------------------------------------------------------------------
D-------------------------------------------------------------------------
A-------------------------------------------------------------------------
E-------------------------------------------------------------------------

e--3---6---6---4--4----6---4---3------------------------------------------
B----------------------------------6---4----3--3--------------------------
G-------------------------------------------------------------------------
D-------------------------------------------------------------------------
A-------------------------------------------------------------------------
E-------------------------------------------------------------------------

e--3---6---8----6--6----8---6---------------------------------------------
B-------------------------------8---6---6----4--4-------------------------
G-------------------------------------------------------------------------
D-------------------------------------------------------------------------
A-------------------------------------------------------------------------
E-------------------------------------------------------------------------

e--3--------------3--------3----------------------------------------------
B-----6---4----4------6-------6---4---------------------------------------
G-------------------------------------------------------------------------
D-------------------------------------------------------------------------
A-------------------------------------------------------------------------
E-------------------------------------------------------------------------

Login or Register to remove this ad.