Ads

Marionette no Kokoro (The [email protected]) Guitar Tab

Submitted: Apr 02, 2014 by corntastic

3
Average: 3 (2 votes)
Download | Listen
Game: The [email protected]
Composer(s): Ryuuichi Takada
Style: Transcription

AutoScroll: Slow | Medium | Fast
Marionette no Kokoro
THE [email protected]
Yukari Hashimoto, Miki Hoshii (CV: Hasegawa Akiko)
http://vgmdb.net/album/29456

corntastic
31 3 2014



e--6-------7--6--6--4-4-------4-6-4-------9--7-6------6-------------------
B-------4---------------7-6-7--------------------9------------------------
G--------------------------------------6----------------------------------
D-------------------------------------------------------------------------
A-------------------------------------------------------------------------
E-------------------------------------------------------------------------


______________________________________________________________________________________


e-------------------------------------------------------------------------
B---------10----8---------------------------------------------------------
G--7--10-------------10--9---7--7-----------------------------------------
D-------------------------------------------------------------------------
A-------------------------------------------------------------------------
E-------------------------------------------------------------------------

e-------------------------------------------------------------------------
B-----------------------10------------------------------------------------
G--7------7-10-9----------------------------------------------------------
D----8-10-----------10----------------------------------------------------
A-------------------------------------------------------------------------
E-------------------------------------------------------------------------

e-------------------------------------------------------------------------
B----------------------10--8----------------------------------------------
G--10--10--10-10-9--7-----------------------------------------------------
D-------------------------------------------------------------------------
A-------------------------------------------------------------------------
E-------------------------------------------------------------------------

e-------------------------------------------------------------------------
B--8-------------------8-10-10--------------------------------------------
G----10-9------------9----------------------------------------------------
D-------------------------------------------------------------------------
A-------------------------------------------------------------------------
E-------------------------------------------------------------------------


e--------------------8--6-------------------------------------------------
B---------10----8-----------10-8------------------------------------------
G--7--10-------------------------10-7-------------------------------------
D-------------------------------------------------------------------------
A-------------------------------------------------------------------------
E-------------------------------------------------------------------------

e-------------------------------------------------------------------------
B---------------------10--------------------------------------------------
G-------7-10-9------------------------------------------------------------
D--8-10-----------10------------------------------------------------------
A-------------------------------------------------------------------------
E-------------------------------------------------------------------------

e-------8-----------------------------------------------------------------
B---------8--------8-10--8------------------------------------------------
G--10-9---------------------10--9--7--------------------------------------
D-------------------------------------------------------------------------
A-------------------------------------------------------------------------
E-------------------------------------------------------------------------

e--------------8----------------------------------------------------------
B--10----8--------10--8---------------------------------------------------
G-----------------------10---9-7------------------------------------------
D-------------------------------------------------------------------------
A-------------------------------------------------------------------------
E-------------------------------------------------------------------------

______________________________________________________________________________________


e-------------------------------------------------------------------------
B-------------------------------------------------------------------------
G--7--------7--------7---------------7------------------------------------
D-----10-------10-------10----8--10---------------------------------------
A-------------------------------------------------------------------------
E-------------------------------------------------------------------------

e-------------------------------------------------------------------------
B-------------------------------------------------------------------------
G--10--9----10--9----10--9------------------------------------------------
D-------------------------------------------------------------------------
A-------------------------------------------------------------------------
E-------------------------------------------------------------------------

e-------------------------8-----------------------------------------------
B------10----8----8-10------10-8-10---------------------------------------
G--7-9---------10---------------------------------------------------------
D-------------------------------------------------------------------------
A-------------------------------------------------------------------------
E-------------------------------------------------------------------------

e------------------------------------------------------8------------------
B------10----8----8--------10----8----8-10--------8-10---10---------------
G--7-9---------10------7-9---------10-------------------------------------
D-------------------------------------------------------------------------
A-------------------------------------------------------------------------
E-------------------------------------------------------------------------

______________________________________________________________________________________


e--6-------7--6--6--4-4-------4-6-4-------9--7-6------6-------------------
B-------4---------------7-6-7--------------------9------------------------
G--------------------------------------6----------------------------------
D-------------------------------------------------------------------------
A-------------------------------------------------------------------------
E-------------------------------------------------------------------------

e--------------6------------6--------6------------------------------------
B--7-7-6-7--9-----------7h9------7h9------9----7--------------------------
G-------------------------------------------------------------------------
D-------------------------------------------------------------------------
A-------------------------------------------------------------------------
E-------------------------------------------------------------------------

e--6-------7--6--6--4-4-------4-6-4-------9--7-6------6-------------------
B-------4---------------7-6-7--------------------9------------------------
G--------------------------------------6----------------------------------
D-------------------------------------------------------------------------
A-------------------------------------------------------------------------
E-------------------------------------------------------------------------

e--------6----------6----------9----7--6----------------------------------
B--6--7-------6--7-------6--7-------------9--7----6-----------------------
G-------------------------------------------------------------------------
D-------------------------------------------------------------------------
A-------------------------------------------------------------------------
E-------------------------------------------------------------------------

e-----------6----------6--6----9---6--------------------------------------
B--6--7--9-------7--9-----------------------------------------------------
G-------------------------------------------------------------------------
D-------------------------------------------------------------------------
A-------------------------------------------------------------------------
E-------------------------------------------------------------------------

______________________________________________________________________________________


e----------6----7--6-------------------------6----------------------------
B---------------------------9--7--9----7--9-------------------------------
G--6--8-------------------------------------------------------------------
D-------------------------------------------------------------------------
A-------------------------------------------------------------------------
E-------------------------------------------------------------------------

e----------6----7--6--------9--7--6---------------------------------------
B-------------------------------------------------------------------------
G--8--8-------------------------------------------------------------------
D-------------------------------------------------------------------------
A-------------------------------------------------------------------------
E-------------------------------------------------------------------------

e--------------------------------6----8----9--8---------------------------
B--9-7-6-----------6-7--9----7-9------------------------------------------
G--------8----6--8--------------------------------------------------------
D-------------------------------------------------------------------------
A-------------------------------------------------------------------------
E-------------------------------------------------------------------------

e----------------------------------6--------------------------------------
B--7--6--9-7--6--9-7--6--9-7----9-----------------------------------------
G-------------------------------------------------------------------------
D-------------------------------------------------------------------------
A-------------------------------------------------------------------------
E-------------------------------------------------------------------------

______________________________________________________________________________________


e--6-------7--6--6--4-4-------4-6-4-------9--7-6------6-------------------
B-------4---------------7-6-7--------------------9------------------------
G--------------------------------------6----------------------------------
D-------------------------------------------------------------------------
A-------------------------------------------------------------------------
E-------------------------------------------------------------------------

e--------------6------------6--------6------------------------------------
B--7-7-6-7--9-----------7h9------7h9------9----7--------------------------
G-------------------------------------------------------------------------
D-------------------------------------------------------------------------
A-------------------------------------------------------------------------
E-------------------------------------------------------------------------

e--6-------7--6--6--4-4-------4-6-4-------9--7-6------6-------------------
B-------4---------------7-6-7--------------------9------------------------
G--------------------------------------6----------------------------------
D-------------------------------------------------------------------------
A-------------------------------------------------------------------------
E-------------------------------------------------------------------------

e--------6----------6----------8----8--6----------------------------------
B--6--7-------6--7-------6--7-------------9--7----6-----------------------
G-------------------------------------------------------------------------
D-------------------------------------------------------------------------
A-------------------------------------------------------------------------
E-------------------------------------------------------------------------

e-----------6----------6--6----9---6--------------------------------------
B--6--7--9-------7--9-----------------------------------------------------
G-------------------------------------------------------------------------
D-------------------------------------------------------------------------
A-------------------------------------------------------------------------
E-------------------------------------------------------------------------
Login or Register to remove this ad.