You Were There (Ico) Guitar Tab

Submitted: Dec 16, 2014 by Andarnio

5
Average: 5 (2 votes)
Download | Listen
Game: Ico
Composer(s): Oshima Michiru
Style: Arrangement, Fingerstyle

AutoScroll: Slow | Medium | Fast
You Were There
Tabbed by Andarnio
Drop D Tuning

I found Kabukibear's tab to be too far from the original song, and sometimes not even on the right bass note, so i redid it. 


     E  E  E  E  E  E     E  E  E  E  E  E     E  E  E  E  E  E   
E||--------------------|--------------------|--------------------|
B||-----------------0--|--0--------------0--|--------------------|
G||--------------0-----|--------------0-----|-----------------2--|
D||--------2--4--------|--------2--4--------|--------0--2--4-----|
A||-----2--------------|-----3--------------|-----0--------------|
D||--2-----------------|--------------------|--0-----------------|


  E  E  E  E  E  E     E  E  E  E  E  E     E  E  E  E  E  E   
--------------------|--------------------|--------------------|
--------------------|--------------------|--------------------|
--2--------------2--|-----------------0--|--------------------|
--------0--2--4-----|--2-----2-----4-----|--4-----4-----0-----|
-----0--------------|-----3-----3--------|-----2-----2-----2--|
--------------------|--------------------|--------------------|


  E  E  E  E  E  E     H        E  E     E  E  E  E  E  E   
--------------------|--0--------------|--0-----------7-----|
--------------0-----|--------------0--|--------0-----------|
--------0--------0--|-----------------|-----0-----0-----0--|
--2--------2--------|-----------------|--2-----------------|
-----2--------------|-----------------|--------------------|
--2-----------------|-----------------|--------------------|


  E  E  E  E  E  E     E  E  E  E  E  E     E  E  E  E  E  E   
--7-----------5--3--|--2-----------3-----|--5-----------3--2--|
--------0-----------|--------3-----------|--------3-----------|
-----0-----0--------|-----2-----2-----2--|-----2-----2--------|
--------------------|--0-----------------|--------------------|
--3-----------------|--------------------|--2-----------------|
--------------------|--------------------|--------------------|


  E  E  E  E  E  E     E  E  E  E  E  E     Q.     E  E  E   
--0-----------2--3--|--2-----------------|------------------|
--------------------|--------------3-----|--0---------0-----|
--------0-----------|--------2-----------|---------2-----2--|
-----2-----2--------|-----4-----4-----4--|--2---------------|
--0-----------------|--2-----------------|--2---------------|
--------------------|--------------------|------------------|


  E  E  E  E  E  E     E  E  E  E  E  E     E  E  E  E  E  E   
--------------------|--0-----------7-----|--7-----------5--3--|
--------------0-----|--------0-----------|--------0-----------|
--2-----0-----------|-----0-----0-----0--|-----0-----0--------|
-----0-----0-----0--|--------------------|--------------------|
--------------------|--3-----------------|--3-----------------|
--0-----------------|--------------------|--------------------|


  E  E  E  E  E  E     E  E  E  E  E  E     E  E  E  E  E  E   
--2-----------3-----|--5-----------------|--0-----------2--3--|
--------3-----------|--------3-----3-----|--------0-----------|
-----2-----2-----2--|-----2-----2-----2--|-----0-----0--------|
--0-----------------|--------------------|--2-----------------|
--------------------|--2-----------------|--------------------|
--------------------|--------------------|--------------------|


  E  E  E  E  E  E     Q.     E  E  E     H.              E  E  E  E  E  E   
--5-----------2-----|--0---------------|---------------|--------------------|
--------------------|------------0-----|---------------|--0-----------3-----|
--------2-----------|--2------2-----2--|--0------------|--------0-----------|
-----4-----4-----4--|--2---------------|--2------------|-----0-----0-----0--|
--2-----------------|--2---------------|---------------|--------------------|
--------------------|------------------|---------------|--5-----------------|


  E  E  E  E  E  E     E  E  E  E  E  E     E  E  E  E  E  E   
--------------------|--------------------|--------------------|
--2--------0--------|--0-----------------|--------------------|
--------2-----2-----|--------0-----0-----|--------0-----0-----|
-----2-----------2--|-----0-----0-----0--|-----0-----0-----0--|
--0-----------------|--------------------|--------------------|
--------------------|--5-----------------|--5-----------------|


  E  E  E  E  E  E     E  E  E  E  E  E     E  E  E  E  E  E   
--------------------|--0-----------------|--------------------|
--0-----------3-----|-----------3--2-----|-----------4--------|
--------0-----------|--------2-----------|--4-----4-----4-----|
-----0-----0-----0--|-----2-----------2--|-----4-----------4--|
--------------------|--0-----------------|--2-----------------|
--5-----------------|--------------------|--------------------|


  E  E  E  E  E  E     E  E  E  E  E  E     H        E  E   
--------------------|--------------------|--0--------------|
-----------0--------|--------------------|--1--------------|
--------4-----2--0--|--2--------2--------|--2--------------|
-----4--------------|-----2--------2-----|--2--------2--4--|
--2-----------------|--------3--------3--|--0--------------|
--------------------|--------------------|-----------------|


  E  E  E  E  E  E     E  E  E  E  E  E     E  E  E  E  E  E   
--------------------|--------------------|--------------------|
--------------------|-----------0--------|--------------------|
--0-----------------|--0-----------2--0--|--2--------2--------|
-----4--2--------2--|-----2--------------|-----2--------2-----|
--------------2-----|--------2-----------|--------3--------3--|
--2--------2--------|--------------------|--------------------|


  H        E  E     E  E  E  E  E  E     E  E  E  E  E  E   
--0--------------|--------------------|--------------------|
--2--------------|--------------------|--1-----------------|
--2--------------|--0--------------0--|-----0-----------0--|
--2--------2--4--|-----4--2-----2-----|--------2-----2-----|
--0--------------|--3--------3--------|-----------3--------|
-----------------|--------------------|--------------------|


  E  E  E  E  E  E     E  E  E  E  E  E     E  E  E  E  E  E   
--0-----------0-----|--0-----------------|--------------------|
-----1-----------3--|--------------------|--0-----------0-----|
--------0-----------|-----------0--------|-----0-----0-----0--|
-----------2--------|--------2-----2-----|--------2-----------|
--------------------|-----2-----------2--|--------------------|
--------------------|--2-----------------|--------------------|


  E  E  E  E  E  E     E  E  E  E  E  E     E  E  E  E  E  E   
--------------------|--------------0-----|--0-----------------|
--2--------2--------|-----------2-----3--|-----------1--------|
-----2--------2-----|--------2-----------|--------0-----0-----|
--------2--------2--|-----2--------------|-----2-----------2--|
--0-----------------|--0-----------------|--3-----------------|
--------------------|--------------------|--------------------|


  E  E  E  E  E  E     E  E  E  E  E  E     E  E  E  E  E  E   
--------------------|--------------------|--0-----------------|
--------------1-----|--2--------2--------|-----2-----2--------|
--------0--------0--|-----2--------2-----|--------2-----2-----|
-----2--------------|--------2--------2--|-----------------2--|
--3--------3--------|--0-----------------|--------------------|
--------------------|--------------------|--------------------|


  E  E  E  E  E  E     E  E  E  E  E  E     E  E  E  E  E  E   
--------------------|--------------------|--------------------|
--2-----------2-----|--2--------0-----2--|--0-----------------|
--------2-----------|-----2--------2-----|--------0-----------|
-----2-----2-----2--|--------2-----------|--------------4-----|
--0-----------------|--0-----------------|-----5-----5-----5--|
--------------------|--------------------|--5-----------------|


  E  E  E  E  E  E     E  E  E  E  E  E     E  E  E  E  E  E   
--------------------|--------------------|--------------------|
--------------0-----|--2--------3--2-----|--2--------0-----2--|
--------0-----------|--------2-----------|-----2--------2-----|
--2-----------------|-----2-----------2--|--------2-----------|
-----5-----5-----5--|--0-----------------|--0-----------------|
--5-----------------|--------------------|--------------------|


  E  E  E  E  E  E     E  E  E  E  E  E     E  E  E  E  E  E   
--------0-----------|--------------------|--0-----5-----3-----|
--0-----------------|--0-----2-----3-----|--------------------|
--------------2-----|--------------------|-----0-----0-----0--|
-----0-----0-----0--|-----0-----0-----0--|--------------------|
--------------------|--------------------|--3-----------------|
--5-----------------|--5-----------------|--------------------|


  E  E  E  E  E  E     E  E  E  E  E  E     E  E  E  E  E  E   
--2-----0-----------|--------------------|--------------------|
--------------3-----|--------------------|--------------------|
-----2-----2-----2--|--0-----2-----0-----|-----------------0--|
--0-----------------|-----2-----2-----2--|--4-----2-----2-----|
--------------------|--------------------|-----0-----0--------|
--------------------|--2-----------------|--0-----------------|


  E  E  E  E  E  E     E  E  E  E  E  E     E  E  E  E  E  E   
--------------------|--------------------|--------------------|
--------------------|--------------------|--------------0-----|
--2-----------4--2--|--0-----------------|--------2-----------|
--------2-----------|--------0-----4-----|--2-----------------|
-----4-----4--------|-----2-----2-----2--|-----2-----2-----2--|
--------------------|--------------------|--2-----------------|


  E  E  E  E  E  E     E  E  E  E  E  E     E  E  E  E  E  E   
--------0-----2-----|--0-----5-----3-----|--2-----0-----------|
--3-----------------|--------------------|--------------3-----|
--------------------|-----0-----0-----0--|-----2-----2-----2--|
-----0-----0-----0--|--------------------|--0-----------------|
--------------------|--3-----------------|--------------------|
--0-----------------|--------------------|--------------------|


  E  E  E  E  E  E     E  E  E  E  E  E     E  E  E  E  E  E   
--------------------|--------------------|--------------------|
--------------------|--------------------|--------------------|
--0-----2-----0-----|-----------------0--|--2-----------4--2--|
-----2-----2-----2--|--4-----2-----2-----|--------2-----------|
--------------------|-----0-----0--------|-----4-----4--------|
--2-----------------|--0-----------------|--------------------|


  E  E  E  E  E  E     E  E  E  E  E  E     H.              E  E  E  E  E  E   
--------------------|--------------------|--0------------|--------------------|
--------------------|--------------0-----|---------------|-----------------0--|
--0-----------------|--------0--------0--|---------------|--------------0-----|
--------0-----4-----|--2--------2--------|---------------|--------2--4--------|
-----2-----2-----2--|-----2--------------|---------------|-----2--------------|
--------------------|--2-----------------|---------------|--2-----------------|


  E  E  E  E  E  E     E  E  E  E  E  E     E  E  E  E  E  E   
--------------------|--------------------|--------------------|
--0--------------0--|--------------------|--------------------|
--------------0-----|-----------------2--|--2--------------2--|
--------2--4--------|--------0--2--4-----|--------0--2--4-----|
-----3--------------|-----0--------------|-----0--------------|
--------------------|--0-----------------|--------------------|


  E  E  E  E  E  E     E  E  E  E  E  E     H.             
--------------------|-----------------2--|--4------------||
--------------------|--------------3-----|--5------------||
-----------------0--|--2--------2--------|--4------------||
--2-----2-----4-----|--------4-----------|--2------------||
-----3-----3--------|-----2--------------|---------------||
--------------------|--------------------|---------------||
Login or Register to remove this ad.

1 comment on You Were There

I really like it! I'm not

5

I really like it!

I'm not familiar with the original so I can't say which is more accurate, yours or Kabukibear's, but I can definitely say I like this better in many places!

Great job on this =)