Hotto Suru Theme (Ichigo Mashimaro) Guitar Tab

Submitted: Oct 02, 2016 by Coolbreeze

5
Average: 5 (2 votes)
Download | Listen
Game: Ichigo Mashimaro
Composer(s): Takeshi Watanabe
Style: 2 or more instruments, Fingerstyle, Natural harmonics, Transcription

AutoScroll: Slow | Medium | Fast
				Hotto Suru Theme
		     	     Ichigo Mashimaro O.S.T

Music by Takeshi Watanabe
Tabbed by Coolbreeze
Tempo = 85


Guitar 1

     Q    E  Q    Q.        W                   E  E  S S Q    E  E  E   
E||--4-------------------|-------------------|--4-----------------------|
B||--5-------5-----------|-------------------|--5-----5---5-------5-----|
G||----------------------|-------------------|-----4--------------------|
D||----------------------|-------------------|--------------------------|
A||----------------------|-------------------|--------------------------|
E||--0-------------------|-------------------|--0-----------------------|


  H.            S   S  E      E  E  S S Q.     T  S. E   
----------------------12--|---L-----4----------2h-3--0--|
---------------10h-12-----|---------5---5---------------|
--------------------------|------4----------------------|
--------------------------|-----------------------------|
--------------------------|-----------------------------|
--------------------------|---0-------------------------|


  Q    H        E   E     E  E  S S Q    E  E  E     W                 
--L--------------------|--4-----------------------|-------------------|
----------------4p--2--|--5-----5---5-------5-----|-------------------|
-----------------------|-----4--------------------|-------------------|
-----------------------|--------------------------|-------------------|
-----------------------|--------------------------|-------------------|
-----------------------|--0-----------------------|-------------------|


  W                   E  E  S S Q    E  E  E     E    Q.     H         
-------------------|------------0----------7--|--L--------------------|
-------------------|--------0--------7--9-----|-----4g5---------------|
-------------------|--------1-----------------|-----------------------|
-------------------|-----2--------------------|-----------------------|
-------------------|--------------------------|-----------------------|
-------------------|--0-----------------------|-----------------------|


  S  E.  E  Q    E  E  E     E  Q    E   E   S  S Q     
-----------------------7--|-------------11--10p-9-7----|
--4h-5------5----7--9-----|-----5----------------------|
--------------------------|----------------------------|
--------------------------|----------------------------|
--------------------------|----------------------------|
--------------------------|----------------------------|


  E  E  S S Q    E  S  S E     E  Q.     H           E  S  E.  Q    E  S  S E   
--------0---0------------7--|--L------------------|-------------------------7--|
--------0--------7--7h-9----|-----5---------------|-----4h-5---5-------7h-9----|
-----1----------------------|---------------------|----------------------------|
----------------------------|---------------------|----------------------------|
----------------------------|---------------------|----------------------------|
--0-------------------------|---------------------|----------------------------|


    Q    E  E  S  E.  Q       E  E  S S Q    E  S  S E   
--4g5----4--5--5h-7--------|--------0---0------------7--|
---------------------------|--------0--------7--7h-9----|
---------------------------|-----1----------------------|
---------------------------|----------------------------|
---------------------------|----------------------------|
---------------------------|--0-------------------------|


  E    Q.     H           S  E.  E  Q    E  E  E   
--L--------------------|-----------------------7--|
-----4g5---------------|--4h-5------5----7--9-----|
-----------------------|--------------------------|
-----------------------|--------------------------|
-----------------------|--------------------------|
-----------------------|--------------------------|


  E  Q.     S   S  S  S Q       E  E  S S Q    E  S  S E   
--L---------9h-11-10p-9-7----|--------0---0------------7--|
-----5-----------------------|--------0--------7--7h-9----|
-----------------------------|-----1----------------------|
-----------------------------|----------------------------|
-----------------------------|----------------------------|
-----------------------------|--0-------------------------|


  E  Q.     H           S  E.  E  Q    E  E  E     E  S S E   E   E  E  E   E   
--L------------------|-----------------------7--|--9--7-8-7--------------------|
-----5---------------|--4h-5------5----7--9-----|------------10--10--9--9------|
---------------------|--------------------------|--------------------------11--|
---------------------|--------------------------|------------------------------|
---------------------|--------------------------|------------------------------|
---------------------|--------------------------|------------------------------|


     NH                                                                        
     H.           E   S  S    S S E  Q    Q.     E     S S  E  E  Q.     Q     
--<>12---------------10p-9-|--L-9-7--7-----------5--|--4-4h-7--7--4-----------|
--<>12---------------------|------------------------|-------------------------|
---------------------------|------------------------|-------------------------|
---------------------------|------------------------|-------------------------|
---------------------------|------------------------|-------------------------|
---------------------------|------------------------|-------------------------|


  S E  S E  S E  S E  E  E      S   S  Q.     H         
--7----7----7----7----7-----|--11h-12-12---------------|
----7----7----7----7--------|--------------------------|
----------------------------|--------------------------|
----------------------------|--------------------------|
----------------------------|--------------------------|
----------------------------|--------------------------|


                                      ^              
  T  S. Q    H        T  S.    Q.     Q    E  E  E   
--3p-2--0-------------------|---------4-------------|
----------------------3h-4--|---------5----5-----5--|
----------------------------|---------4-------4-----|
----------------------------|-----------------------|
----------------------------|-----------------------|
----------------------------|-----------------------|


  E  S S S S E  E  E  S  S E     S  S  E   E  Q    Q.      
---------0-0-0--0--0--2s-4-7--|--7h-9-12--12--------------|
-----0-2----------------------|---------------9-----------|
------------------------------|---------------9-----------|
------------------------------|---------------------------|
------------------------------|---------------------------|
------------------------------|---------------------------|


  Q.     S   E.     E  E  E     Q    H        S S E     S S E  H.            
---------9h-11---10g9--7--9--|--7---------------5-4--|--5-7-----------------|
-----------------------------|-----------------------|------5---------------|
-----------------------------|-----------------------|----------------------|
-----------------------------|-----------------------|----------------------|
-----------------------------|-----------------------|----------------------|
-----------------------------|-----------------------|----------------------|


            ^                                       
  S E  S E  Q    Q    E     Q    E  E  E  E  E  E   
--7----7-----------------|--0-------0-----0--2--0--|
----7----7--9------------|-------------4-----------|
------------9----9-------|-------------------------|
-------------------------|-------------------------|
-------------------------|-------------------------|
-------------------------|-------------------------|


  S  S Q    Q    S  S  E   E     W                   E  E  E  Q    E  E  E   
--2h-4-L----7----7s-9-12--12--|-------------------|--0--------0----------7--|
------------------------------|--9----------------|--0-------------7--9-----|
------------------------------|-------------------|-----1-------------------|
------------------------------|-------------------|-------------------------|
------------------------------|-------------------|-------------------------|
------------------------------|-------------------|--0----------------------|


  E  E  H.              S  E.  E  Q    E  E  E     E  Q    E  S   S  S  S Q     
--L------------------|------------0----------7--|--L----------9h-11-10p-9-7----|
-----5---------------|--4h-5-----------7--9-----|-----5------------------------|
---------------------|--------------------------|------------------------------|
---------------------|--------------------------|------------------------------|
---------------------|--------------------------|------------------------------|
---------------------|--------------------------|------------------------------|


  E  E  S S Q    E  E  E     E  Q.     H           S  E.  E  Q    E  E  E   
--------0---0----------7--|---------------------|------------0----------7--|
--------0--------7--9-----|-----5---------------|--4h-5-----------7--9-----|
-----1--------------------|---------------------|--------------------------|
--------------------------|---------------------|--------------------------|
--------------------------|---------------------|--------------------------|
--0-----------------------|---------------------|--------------------------|


  E  S  S E  E  E  E  Q        W                  
--9--8p-7-7--5--5--4--4----|--12----------------||
---------------------------|--12----------------||
---------------------------|--11----------------||
---------------------------|--------------------||
---------------------------|--------------------||
---------------------------|--------------------||




Guitar 2

                             ^                                                
     Q.     Q    E  E  E     E  E  E  E  E  E  E  E     Q.     Q    E  E  E   
E||-----------------------|--0-----0-----------------|-----------------------|
B||---------0-------0-----|--------------4-----4-----|---------0-------0-----|
G||-----------------------|--2-----2-----------4-----|--------------------0--|
D||---------2----2-----2--|-----2-----2-----4--------|---------2----2--------|
A||-----------------------|--0-----------2-----------|-----------------------|
E||---------4-------------|--------------------------|---------4-------------|


  ^                                                             ^            
  E  E  Q    E  E  E  E     Q.     Q    E  E  E     E  E  E  E  E  E  E  E   
--------0----------------|-----------------------|--------------------------|
--2----------4-----4-----|---------0-------0-----|--2-----2-----4-----2-----|
--2----------------4--4--|-----------------0-----|--------2-----4--4--------|
--2--2----------4-----4--|---------2----2-----2--|-----2--------4--4--------|
--0----------2-----2-----|-----------------------|--0-----------2-----2-----|
-------------------------|---------4-------------|--------------------------|


                          ^           ^                                     
  Q.     Q    E  E  E     E  E  E  E  E  E  E  E     E  E  E  E  Q    Q     
-----------------------|--------------0-----------|--------------2---------|
---------0-------0-----|--2-----2-----2-----------|--4----------------4----|
--------------------0--|--2-----2-----2-----2-----|--------2---------------|
---------2----2--------|--2--2--------4--4-----4--|-----4-----4------------|
-----------------------|--0-----------0-----------|------------------------|
---------4-------------|--------------------------|------------------------|


  Q.     Q    E  E  E     E  E  E  E  E  E  E  E     E  E  S S Q    E  E  E   
-----------------0-----|--------0-----------------|--------0-----------0-----|
---------0----------0--|--2-----2-----4-----4--4--|--------0---0-------0-----|
-----------------------|--------------------4-----|-----1--------------------|
---------2----2--2--2--|-----2-----0-----4--------|------------2----2-----2--|
-----------------------|--0-----------2-----------|--------------------------|
---------4-------------|--------------------------|--0---------4-------------|


  E  E  E  E  E  E  E  E     Q.     Q    E  E  E     E  E  E  E  E  E  E  E   
--------------------------|-----------------0-----|--------0-----------------|
--2-----2-----------4-----|---------0----------0--|--------2-----------4--4--|
--------2-----------4-----|-----------------------|--------------------4-----|
-----2-----2-----4-----4--|---------2----2--2--2--|-----2-----2-----4-----4--|
--0-----------2--------2--|-----------------------|--0-----------2-----------|
--------------------------|---------4-------------|--------------------------|


  E  E  S S Q    E  E  E     E  E  E  E  E  E  E  E     Q.     Q    E  E  E   
--------0-----------0-----|--------------------------|-----------------0-----|
--------0---0-------0-----|--------2-----------4-----|---------0----------0--|
-----1--------------------|--------2-----------4-----|-----------------------|
------------2----2-----2--|-----2-----2-----4-----4--|---------2----2--2--2--|
--------------------------|--0-----------2-----------|-----------------------|
--0---------4-------------|--------------------------|---------4-------------|


  E  E  E  E  E  E  E  E     E  E  S S Q    E  E  E   
--------0-----------------|--------0-----------0-----|
--------2-----------4--4--|--------0---0-------0-----|
-----------2--------4-----|-----1--------------------|
-----2-----------4--------|------------2----2-----2--|
--0-----------2-----------|--------------------------|
--------------------------|--0---------4-------------|


  E  E  E  E  E  E  E  E     Q.     Q    E  E  E     E  E  E  E  E  E  E  E   
--------------------------|-----------------0-----|--------------------------|
--2-----2-----4-----4-----|---------0----------0--|--------2-----------4--4--|
--------2-----------4-----|-----------------------|--------2-----------4-----|
-----2-----2-----4-----4--|---------2----2--2--2--|-----2-----2-----4-----4--|
--0-----------2--------2--|-----------------------|--0-----------2-----------|
--------------------------|---------4-------------|--------------------------|


                                         ^                                      
  E  E  S S Q    E  E  E     E  E  E  E  E  E  E  E     E  E  E  Q    E  E  E   
--------0-----------0-----|--------------------------|-----------0-------------|
--------0---0-------0-----|--2-----2-----4-----4-----|--------0----------0-----|
-----1--------------------|--------2-----4-----------|-----1----------1-----1--|
------------2----2-----2--|-----2--------4--4-----4--|--2----------------------|
--------------------------|--0-----------2-----------|-------------------------|
--0---------4-------------|--------------------------|--0----------------------|


  E  E  E  E  E  E  E  E     E  E  E  Q    E  E  E   
--------------------------|-----------0-------------|
-----------2-----------4--|--------0-------0-----0--|
--------2-----------4-----|-----1-------------1-----|
-----2-----------4--------|-----------2-------------|
--0-----------2-----------|-------------------------|
--------------------------|--0----------------------|


  E  E  S S E  E  E  E  E     E  E  E  Q    E  E  S  S  
---------------------------|-----------0----------0h-2-|
--0-------0-2-----------4--|----------------0----------|
--------2------------4-----|--------0----------1-------|
-----2------------4--------|-----2---------------------|
--0------------2-----------|---------------------------|
---------------------------|--0------------------------|


  E  E  E  E  E  E  E  E     E  E  H.              Q    E  E  E  E  E  E   
--------------------------|---------------------|-------------------------|
-----------2-----------2--|--0------------------|----------2-----------4--|
--------2-----------4-----|-----1---------------|-------------------------|
-----2-----------4--------|--------2------------|----------------4--------|
--0-----------2-----------|---------------------|--0----0-----2-----2-----|
--------------------------|--0------------------|-------------------------|


  E  E  E  Q    E  E  E     E  E  E  E  E  E  E  E     E  E  E  Q    E  E  E   
----------------0--------|--------------------------|-----------0----------0--|
--------0----------0-----|-----------2-----------4--|--------0--0-------0-----|
-----0----------------1--|--------2-----------4-----|-----1----------1--------|
-------------------------|-----2-----------4--------|-----------2-------------|
-------------------------|--0-----------2-----------|-------------------------|
--0----------------------|--------------------------|--0----------------------|


  E  E  E  E  E  E  E  E     E  Q    Q.     E    E     E  E  E  E  E  E  Q     
--------------------------|-------------------------|-------------------------|
-----------2-----------4--|--0-------0--------------|-----------2-------------|
--------2-----------4-----|-----1-----------4--4g6--|--------2----------------|
-----2-----------4--------|-------------------------|-----2-----------4-------|
--0-----------2-----------|-------------------------|--0-----------2-----2----|
--------------------------|--0----------------------|-------------------------|


                           ^                                         
  E  E  E  Q    E  Q       W                   Q.     Q    E  E  E   
-----------0------------|--0----------------|-----------------0-----|
--------0-------0-------|--0----------------|---------0----------0--|
-----1-------------1----|--1----------------|-----------------------|
-----------2------------|-------------------|---------2----2--2--2--|
------------------------|-------------------|-----------------------|
--0---------------------|-------------------|---------4-------------|


  E  E  E  E  E  E  E  E     E  E  S S Q    E  E  E   
--------------------------|--------0-----------0-----|
--------2-----------4--4--|--------0---0-------0-----|
--------2-----------4-----|-----1--------------------|
-----2-----2-----4-----4--|------------2----2-----2--|
--0-----------2-----------|--------------------------|
--------------------------|--0---------4-------------|


  E  E  E  E  E  E  E  E     Q.     Q    E  E  E     E  E  E  E  E  E  E  E   
--------------------------|-----------------0-----|--------------------------|
--------2-----------4-----|---------0----------0--|--------2-----------4--4--|
--------2-----------4-----|-----------------------|--------2-----------4-----|
-----2-----2-----4-----4--|---------2----2--2--2--|-----2-----2-----4-----4--|
--0-----------2-----------|-----------------------|--0-----------2-----------|
--------------------------|---------4-------------|--------------------------|


                                                        ^                  
  E  E  S S Q    E  E  E     E  E  E  E  E  E  E  E     W                  
--------0-----------0-----|--------------------------|--0----------------||
--------0---0-------0-----|--2--------------------4--|--0----------------||
-----1--------------------|--------2-----------4-----|--1----------------||
------------2----2-----2--|-----2-----2-----4--------|--2----------------||
--------------------------|--0-----------2-----------|-------------------||
--0---------4-------------|--------------------------|-------------------||
Login or Register to remove this ad.