Ads

Easthaven In Peace (Icewind Dale) Guitar Tab

Submitted: Aug 18, 2009 by kenor (Last updated: Feb 06, 2010)

5
Average: 5 (6 votes)
Download | Listen
Game: Icewind Dale
Composer(s): Jeremy Soule
Style: Arrangement, Fingerstyle

AutoScroll: Slow | Medium | Fast
Easthaven in peace
~Icewind Dale~
Composed by: Jeremy Soule
Arranged by: kenor

Rhytm: 3/4 metrum

     E  E  Q    Q       E  E  Q    Q       E  E  Q    Q       E  E  Q    Q
E||--------0---------|------------------|--------0----5----|--3--2--0---------|
B||-----3------------|--0---------------|-----3------------|------------------|
G||--5----------5----|-----0--2---------|--5---------------|------------------|
D||------------------|-------------3----|------------------|--2---------------|
A||--0---------------|------------------|--3---------------|------------------|
E||------------------|--1---------------|------------------|-------------0----|

                                                                    ^
     E  E  Q    Q       E  E  Q    Q       E  E  E    Q       E  E  Q    Q                 
E||--0--3--3---------|-----0--1---------|-----5--5---------|------------------|
B||-------------3----|--3---------------|--5---------------|-----3--5---------|
G||------------------|------------------|-------------5----|--5---------------|
D||------------------|------------------|------------------|--------7----6----|
A||------------------|--1----------1----|--0---------------|------------------|
E||--1---------------|------------------|------------------|--------0---------|

     ^                    ^                    ^                    ^
     E  E  E  E  E  E     E  E  E  E  E  E     E  E  E  E  E  E     E  E  E  E  E  E
E||--------0-----------|--------------------|--------------5-----|--3--2--0-----------|
B||--1--3--------1-----|--0-----------------|-----3--5-----------|--0-----------------|
G||-----------2--------|-----0--2-----------|--5--------------5--|--------0--------0--|
D||--2--------------2--|--3-----0-----------|--5--------5--------|--------------2-----|
A||--0-----------------|-----------3--2--0--|--3-----------------|-----------2--------|
E||--------------------|--1-----------------|--------------------|--0-----------------|

     ^                    ^                    ^                          ^
     E  E  E  E  E  E     E  E  E  E  E  E     E  E  E  E  E  E     E  E  E  E  E  E                     
E||--0--3--3-----------|-----0--1-----------|-----5--5-----------|--------0-----------|
B||--1-----------3-----|--3-----------------|--5-----------------|--------3-----------|
G||--2--------------2--|--------3--2--------|--5-----------5-----|--5--7--2-----1-----|
D||--3-----------------|--3-----------3--2--|-----------7--------|--7--------2-----2--|
A||-----------------3--|--1-----------------|-----------------7--|--------------------|
E||-----------1--------|--------------------|--5-----------------|--------0-----------|


  Tremolo picking:   p a m i p a m i p a m i    etc...
     H.              E       E       E       E       E       E
E||---------------|--------------------------------------------------|
B||---------------|----2-2-2---2-2-2---2-2-2---2-2-2---2-2-2---2-2-2-|
G||---------------|------------------2---------------2---------------|
D||---------------|----------2---------------2---------------2-------|
A||---------------|--0-----------------------------------------------|
E||--0------------|--------------------------------------------------|


     E       E       E       E       E       E
E||----4-4-4---4-4-4---4-4-4---4-4-4---4-4-4---4-4-4-|
B||--------------------------------------------------|
G||------------------2---------------2---------------|
D||----------2---------------2---------------2-------|
A||--0-----------------------------------------------|
E||--------------------------------------------------|


     E       E       E       E       E       E
E||--------------------------------------------------|
B||----2-2-2---2-2-2---2-2-2---2-2-2---2-2-2---2-2-2-|
G||------------------2---------------2---------------|
D||----------2---------------2---------------2-------|
A||--0-----------------------------------------------|
E||--------------------------------------------------|


     E       E       E       E       E       E
E||----4-4-4---4-4-4---4-4-4---4-4-4---4-4-4---4-4-4-|
B||--------------------------------------------------|
G||------------------2---------------2---------------|
D||----------2---------------2---------------2-------|
A||--0-----------------------------------------------|
E||--------------------------------------------------|


     E       E        E       E        E       E
E||----9-9-9----9-9-9---9-9-9----9-9-9---9-9-9----9-9-9-|
B||---------------------------10------------------------|
G||-------------------9----------------9----------------|
D||----------11--------------------------------11-------|
A||--0--------------------------------------------------|
E||-----------------------------------------------------|


     E          E          E          E          E          E             H.
E||----11-11-11---11-11-11---11-11-11---11-11-11---12-12-12---12-12-12-|--9------------||
B||------------------------9---------------------9---------------------|--9------------||
G||-------------9---------------------9---------------------8----------|--9------------||
D||--------------------------------------------------------------------|---------------||
A||--------------------------------------------------------------------|--0------------||
E||--0-----------------------------------------------------------------|---------------||



Legend:
-------

H - half
Q - quarter
E - 8th
. - dotted
^ - brush up
p - thumb picking
a - 3rd finger picking
m - 2nd finger picking
i - 1st finger picking
Login or Register to remove this ad.

1 comment on Easthaven In Peace

a very fun piece :)

5

a very fun piece :)