Ads

Skeleton of a Town (Icewind Dale 2) Guitar Tab

Submitted: May 25, 2015 by Pupos

5
Average: 5 (1 vote)
Download | Listen
Game: Icewind Dale 2
Composer(s): Inon Zur
Style: Arrangement, Fingerstyle

Click here for a video example.

AutoScroll: Slow | Medium | Fast
Composed by Inon Zur

Legend
L - tied note
g - ghost note


E |--0g---------|-------------|-------------|----------------------|
B |--12-10-12---|-------------|--12-10-12---|----------------------|
G |--------12L--|--12-11L11---|--0----------|-----------------0----|
D |-------------|-------------|-------------|--------------2-------|
A |-------------|-------------|--9-----7L---|--7s----9-------------|
E |-------------|-------------|--0-----0----|----------------------|


-------------|-------------|-------------|----------------------|-------------|
--0----------|-------------|-------------|----------------------|--0----------|
--0--2-------|--------0----|-----0-------|-----------------0----|--0--2-------|
--2----------|-------------|--4----------|--------------2-------|--2----------|
--3-----0----|-------------|--2----------|----------------------|--3-----0----|
-------------|--3--2-------|--0-----0----|--0-----2-----3-------|-------------|


-------------|----------------------|--0-----------2-------|
-------------|--3-----------0-------|--0-----0-------------|
-----0-------|--2-----2-------------|--0--0-----0----------|
--------4----|-----0-----0----------|----------------------|
-------------|----------------------|----------------------|
--3----------|--2-------------------|--0-------------------|


--3--------5--3-------|--2-------------------|--0-------------------|
--1-----1-------------|--3-----3g----3-------|--1--------3--0-------|
--0--0----------------|--2--2-----2----------|--0-----0-------------|
----------------------|--0-------------------|--2--2----------------|
--3-------------------|----------------------|--0-------------------|
----------------------|----------------------|--3-------------------|


----------------------|----------------------|----------------------|
----------------------|--0-------------------|----------------------|
--0--------------0----|--0-----2-----0-------|----------------------|
--2-----2g----2-------|--2-------------------|--4--------2--0-------|
--2--2g----2g---------|--3--3-----3----------|--0-------------------|
--0-------------------|----------------------|--2-----2-------------|


--------------2-------|--3-----7-----10------|--12------------------|
--------------0-------|--0-----0-----0-------|--0-----10------------|
----------------------|----------------------|----------------------|
--0-----2-------------|----------------------|----------------------|
--2-----2-------------|----------------------|--10----10----10------|
--0--0-----------0----|-----0-----0-----0----|--8--8-----8-----8----|


--------------3-------|--2-----3-------------|--------------0--3----|
----------------------|--0-------------------|----------------------|
----------------------|--0-------------------|--------0-------------|
----------------------|----------------------|--4-------------------|
--10----9-------------|-----2--------2-------|----------------------|
-----8----------------|--0--------0-----0----|-----0-----0----------|


--7-----5-------------|--------3-----2-------|--10------------------|
--5-------------------|----------------------|--10-------10-12------|
--0--0-----0-----0----|--2--------------0----|--11----11------------|
--------------2-------|-----------------2----|--0--0--------0-------|
--3-------------------|-----3-----3----------|--0-------------------|
----------------------|----------------------|----------------------|


--12----------------------------------------------------------------------------
--0-----------------------------------------------0-----------------------------
--0-----------------------0-----------------------------------------------------
--------------------------------------------------------------------------4-----
--------------------------------------------------------------------------------
--0-----------------------------------------------------------------------------


------------------------------------------------0--------2----------|
---------------------0--------1--------3----------------------------|
---0--------2-------------------------------------------------------|
--------------------------------------------------------------------|
--------------------------------------------------------------------|
--------------------------------------------------------------------|


--3--------5--3-------|--2-------------------|--0-------------------|
--1-----1-------------|--3-----3g----3-------|--1--------3--0-------|
--0--0--0--------0g---|--2-----2-------------|--0-----0-------------|
----------------------|--0--0--0--0----------|--2--2----------------|
--3-------------------|----------------------|--0-------------------|
----------------------|----------------------|--3-------------------|


--------------0--3----|--7-----5-----3-------|--2--------0----------|
----------------------|--5-------------------|--3-----------3-------|
--0-------------------|--0--0-----0----------|--2-----2-------------|
--2-----2-----2-------|----------------------|--0-------------------|
--2--2-----2----------|--3-------------------|----------------------|
--0-------------------|----------------------|----------------------|


--------0-------------|----------------------|-------------|-------------|
--3-------------------|----------------------|--0----------|-------------|
--0-------------------|-----------------0----|--0--2--0----|-------------|
----------------------|--2L----2-----2-------|--2----------|--4L-4--0----|
--------------2-------|----------------------|--3----------|--0L-0-------|
--0--0----------------|----------------------|-------------|--2L-2-------|


-------------|--12L12L12---||
--------12---|-------------||
-------------|-------------||
--0--2L-2----|-------------||
-------------|-------------||
--0----------|-------------||
Login or Register to remove this ad.