Arrival at the Docks (Icewind Dale 2) Guitar Tab

Submitted: Feb 18, 2010 by Bhael (Last updated: Apr 12, 2011)

5
Average: 5 (2 votes)
Download | Listen
Game: Icewind Dale 2
Composer(s): Inon Zur
Style: Arrangement, Fingerstyle

Click here for a video example.

AutoScroll: Slow | Medium | Fast
                             Arrival at the Docks       
                               Icewind Dale 2                        
                                  Inon Zur




     H        Q    Q       H        H           H        H         
E||---------------------|--0-----------------|--------------------|
B||----------------1----|-----------3--------|-----------1--------|
G||-----------2---------|--------------------|--------------------|
D||---------------------|--------------------|--------------------|
A||--0------------------|--------------------|--------------------|
E||---------------------|--------------------|--0-----------------|


  ^                                                             
  H        H           H        Q    Q       H        H         
--------------------|---------------------|--0--------3--------|
--0--------1--------|----------------1----|-----------3--------|
--0-----------------|-----------2---------|--------------------|
--2-----------------|---------------------|--------------------|
--------------------|--0------------------|--------------------|
--------------------|---------------------|--------------------|


                       ^                                       
  H        H           H        H           H        H         
--------------------|--0-----------------|--0--------3--------|
-----------1--------|--1--------3--------|--1--------1--------|
--2--------2--------|--2--------2--------|--2--------2--------|
--2--------2--------|-----------3--------|--0--------0--------|
--0--------0--------|--0--------0--------|--------------------|
--------------------|--------------------|--------------------|


  W                   E  E  E  E  E  E  E  E     E  E  E  E  E  E  E  E   
--7----------------|--5-----------------------|--0-----------------------|
--5----------------|--------------------1-----|--------------3-----------|
--5----------------|--------2-----2-----------|--------2-----------2-----|
--0----------------|-----2-----2-----2-----2--|-----2-----2-----2-----2--|
-------------------|--0-----------------------|--0-----------------------|
-------------------|--------------------------|--------------------------|


  E  E  E  E  E  E  E  E     E  E  E  E  E  E  E  E   
--------------------------|--------------------------|
--------------1-----0-----|--0-----------1-----------|
--------0-----------------|--------0-----------2-----|
-----2-----2-----2-----2--|-----2-----2-----2-----2--|
--------------------------|--------------------------|
--0-----------------------|--0-----------------------|


  E  E  E  E  E  E  E  E     E  E  E  E  E  E  E  E   
--------------------------|--0-----------------------|
--------------------1-----|--------------3-----------|
--------2-----2-----------|--------2-----------2-----|
-----2-----2-----2-----2--|-----2-----2-----3-----3--|
--0-----------------------|--0-----------------------|
--------------------------|--------------------------|


                                                       ^                       
  E  E  E  E  E  E  E  E     E  E  E  E  E  E  Q       E  E  E  E  E  E  Q     
--------------------------|--3-----------------0----|--5-----------------7----|
--------------1-----0-----|--1-----1-----1----------|--5-----5-----5----------|
--------0-----------------|--2--2-----2-----2-------|--5--5-----5-----5-------|
-----2-----2-----2-----2--|--0----------------------|--3----------------------|
--------------------------|-------------------------|-------------------------|
--0-----------------------|-------------------------|-------------------------|


  ^                           ^                         ^                       
  E  E  E  E  E  E   E  E     E  E  E  E  E  E  Q       E  E  E  E  E  E  Q     
--8-----------------10--8--|--7----------------------|--5-----------------3----|
--5-----5-----5------------|--5-----5-----5-----8----|--5-----5-----5----------|
--5--5-----5-----5---------|--5--5-----5-----5-------|--5--5-----5-----5-------|
--5------------------------|-------------------------|--3----------------------|
---------------------------|--0----------------------|-------------------------|
---------------------------|-------------------------|-------------------------|


  E  E  E  E  E  E  E  E     E  E  E  E  E  E  E  E   
--0-----------------------|--0-----------------------|
--------------------1-----|--------------3-----------|
--------2-----2-----------|--------2-----------2-----|
-----2-----2-----2-----2--|-----2-----2-----3-----3--|
--0-----------------------|--0-----------------------|
--------------------------|--------------------------|


                                         ^                                
  E  E  E  E  E  E  E  E     E  E  E  E  H            H         H         
--------------------------|-----------------------|----------------------|
--------------1-----0-----|--0--------------------|--12------------------|
--------0-----------------|--------2-----2--------|------------12--------|
-----2-----2-----2-----2--|-----2-----2--2--------|----------------------|
--------------------------|--0-----------0--------|----------------------|
--0-----------------------|-----------------------|----------------------|


    W                  
---------------------||
---------------------||
--<>2----------------||
---------------------||
---------------------||
---------------------||




Duration Legend
---------------
W - whole
H - half
Q - quarter
E - 8th
S - 16th
T - 32nd
X - 64th
. - note dotted
|-n-|  - n-tuplets


Tablature Legend
----------------
L - tied note
x - dead note
g - grace note
(n) - ghost note
> - accentuded note
NH - natural harmonic
AH - artificial harmonic
TH - tapped harmonic
SH - semi harmonic
PH - pitch harmonic
h - hammer on
p - pull off
b - bend
br - bendRelease
pb - preBend
pbr - preBendRelease
brb - bendReleaseBend
\n/ - tremolo bar dip
\n - tremolo bar dive
-/n - tremolo bar Release up
/n\ - tremolo bar inverted dip
/n - tremolo bar return
-\n - tremolo bar Release down
S - shift slide
s - legato slide
/ -  slide into from below or out of upwards
\ -  slide into from above or out of downwards
~ - vibrato
W - wide vibrato
tr - trill
TP - tremolo picking
T - tapping
S - slap
P - pop
< - fade in
^ - brush up
v - brush down
Login or Register to remove this ad.