Ads

Puppet (Ib) Guitar Tab

Submitted: Aug 28, 2012 by N0Stars

4.833335
Average: 4.8 (6 votes)
Download | Listen
Game: Ib
Composer(s): YASUpochi
Style: Arrangement, Fingerstyle

This song is also called Mary's Theme

AutoScroll: Slow | Medium | Fast
Ib - Puppet (Mary's Theme)

Composed by YASUpochi (Selected by Kouri)

Arranged for Guitar by N0Stars

Gtr I (E A D G B E) - 'Untitled'

  Q.=50
 6/8
  Gtr I
  E E E E E E   E E  E E E E     E E E  E  E E   E E E E E E
|-------------|--------------||--0---7--8--7---|-2-3-----2------|
|---0-0---0-0-|-1----------0-||o---8-0-----0-8-|-----5-4--------|
|---0-0---0-0-|---2--2---2-2-||----0-0-----0-0-|---2-2-----4----|
|-2-----------|---4--4---4-4-||----------------|---------4------|
|-------2-----|--------2-----||o---------------|-2-----2--------|
|-------------|--------------||--7------7------|----------------|


                         1.               2.
  E S S S S  E S S S S   E E E  E E E     E E E E Q
|------------0-----0-2-|---7--------7--||-3-2----------|
|-1---0-1-3------4-----|-8---8-10-7---o||-----4-5------|
|---2---2------2---2---|-9------8------||---4-4---4----|
|----------------------|---------------||---------5----|
|-0----------2---------|--------------o||-2------------|
|----------------------|-7------7------||-------0------|


  E E E E E E   E E E E E E   E E E E E E   E E E E E E
|-------------|-------------|-------------|----------------|
|-------------|-------------|-------------|----------------|
|-------------|-------2-----|-2-----------|---------2-4----|
|---5-5---5-5-|---4-4---4-4-|---4-4---4-4-|---4-4---4-4----|
|-7-----------|-6-----------|-------2-----|-6-----2--------|
|-------7-----|-------------|-------------|----------------|


                                                1.
     E  E E E E E   E E E E E E   E E E E E E   E E E E E E
||--12-10-8-7---0-|---3-5-3-2---|-----0---0-2-|-0-2-3-5-2-7-----||
||o-----0-0---8-0-|-7-------4---|-1-3---4-----|---1-----4------o||
||------0-0---0-0-|---5-5-----4-|---0-----2---|---2-2---4-4-----||
||----------------|-------------|---2-2-1-4-4-|-----------------||
||o--7------------|-3-----2-----|-3-----------|-0-----2--------o||
||----------7-----|-------------|-------------|-----------------||


  2.
  E E E E Q
|-3-2----------||
|-----4-5------||
|---4-----4----||
|---------5----||
|-2------------||
|-------0------||


  E E E E E E   S S S S S S E E E     E S S E E E E   E E E S S S S E
|-------------|-------------------||--0-----7-8-7---|-2-3-------2-------|
|---0-0---0-0-|-1---------------0-||o---8---0---0-8-|-----5-4-----------|
|---0-0---0-0-|---2---2---2---2-2-||------0-0---0-0-|---2-2---------4---|
|-2-----------|-----4---4-----4-4-||----------------|-------------4-----|
|-------2-----|-------------2-----||o---------------|-2-------2---------|
|-------------|-------------------||--7-------7-----|-------------------|


                        1.                     2.
  E S S S S E S S S S   S S S S S S  E E E     E E E E Q
|-----------0-----0-2-|-----7---7--------7--||-3-2----------|
|-1---0-1-3-----4-----|---8---8---8-10-7---o||-----4-5------|
|---2---2-----2---2---|-9------------8------||---4-4---4----|
|---------------------|---------------------||---------5----|
|-0---------2---------|--------------------o||-2------------|
|---------------------|-7------------7------||-------0------|


  S S S S S S S S S S S S   S S S S S S S S S S S S
|-------------------------|----------------------------|
|-------------------------|----------------------------|
|-----4---4-------4---4---|-----4---4---2---4---4------|
|---5---5---5---5---5---5-|---4---4---4---4---4---4----|
|-7-----------7-----------|-6--------------------------|
|-------------------------|----------------------------|


  S S S S S S S S S S S S   S S S S S S E  E  E
|-------------------------|----------------5--7----|
|-------------------------|----------------4--4----|
|-2---------------2---2---|-----2---2------2--4----|
|---4---4---4---4---4---4-|---4---4---4------------|
|-----6---6---2-----------|-6-----------2----------|
|-------------------------|------------------------|


                                                 1.
      E  E E E E E   E E E E E E   E E E E E E   E S S S S E E   E
||--^12-10-8-7---0-|---3-5-3-2---|-----0---0-2-|-0-2p0-2h3-5-2---------||
||o-^-0--0-0---8-0-|-7-------4---|-1-3---4-----|---1---------4--12----o||
||--^-x--0-0---0-0-|---5-5-----4-|---0-----2---|---2---2-----4---------||
||--^-9------------|-------------|---2-2-1-4-4-|-----------------9-----||
||o-^-7------------|-3-----2-----|-3-----------|-0---------2----------o||
||-----------7-----|-------------|-------------|-----------------------||


  2.
  E E E E E E   E E E  Q.      +H.
|-3-2---------|------^12----|-(12)----*|
|-----4-5-----|------^-0----|--(0)----*|
|---4-----4-4-|---4-4^-0----|--(0)----*|
|---------5-5-|---5-5-------|---------*|
|-2-----------|-2-----------|---------*|
|-------0-----|------^-0----|--(0)----*|


Duration Legend
---------------
W - whole; H - half; Q - quarter; E - 8th; S - 16th; T - 32nd; X - 64th; a - acciaccatura
+ - note tied to previous; . - note dotted; .. - note double dotted
Uncapitalized letters represent notes that are staccato (1/2 duration)
Irregular groupings are notated above the duration line
Duration letters will always appear directly above the note/fret number it represents the
duration for.  Duration letters with no fret number below them represent rests.  Multi-
bar rests are notated in the form Wxn, where n is the number of bars to rest for.  Low
melody durations appear below the staff

Tablature Legend
----------------
 h   - hammer-on
 p   - pull-off
 b   - bend
 pb  - pre-bend
 r   - bend release (if no number after the r, then release immediately)
 /\  - slide into or out of (from/to "nowhere")
 s   - legato slide
 S   - shift slide
  - natural harmonic
[n]  - artificial harmonic
n(n) - tapped harmonic
 ~   - vibrato
 tr  - trill
 T   - tap
 TP  - trem. picking
 PM  - palm muting
\n/  - tremolo bar dip; n = amount to dip
 \n  - tremolo bar down
 n/  - tremolo bar up
/n\  - tremolo bar inverted dip
 =   - hold bend; also acts as connecting device for hammers/pulls
 <>  - volume swell (louder/softer)
 x   - on rhythm slash represents muted slash
 o   - on rhythm slash represents single note slash

Misc Legend
-----------
 |  - bar
||  - double bar
||o - repeat start
o|| - repeat end
*|  - double bar (ending)
 :  - bar (freetime)
 $  - Segno
 &  - Coda
Tempo markers -  = BPM(8/16=s8/s16), where s8 = swing 8ths, s16 = swing 16ths


***************************************************************************************
* Generated using Power Tab Editor by Brad Larsen - http://powertab.guitarnetwork.org *
***************************************************************************************
Login or Register to remove this ad.

1 comment on Puppet

excellent arranging

5

excellent arranging