Ads

Old Puppet (Ib) Guitar Tab

Submitted: Sep 13, 2012 by daniel guerra c...

5
Average: 5 (2 votes)
Download | Listen
Game: Ib
Composer(s): YASUpochi
Style: Transcription

This song is also called Carrie Careless Theme

Click here for a video example.

AutoScroll: Slow | Medium | Fast
Song : Furuiningyou (Old Puppet - Carrie Careless Theme)
Game : Ib
Cover: Daniel Guerra Caballero (original)
Video: http://youtu.be/oWnHZHxz9eU
Date : September, 2012
Mail : [email protected]
Blog : http://danielguerracaballero.blogspot.com


Main riff

1-------10--11-10-8----15-14-13----------13-12-11--------------------------------15-
2-8-7-8--------------8----------------------------------------------8------12-15----
3-------------------------------10-12-10-----------8-10-8-10-8-10-------12----------
4-----------------------------------------------------------------------------------
5-----------------------------------------------------------------------------------
6-----------------------------------------------------------------------------------

1-------10--11-10-8----15-14-13----------13-12-11-----------------------------------
2-8-7-8--------------8--------------------------------------------------------------
3-------------------------------10-12-10-----------8-10-8---7-5---------------------
4-----------------------------------------------------------------------------------
5-----------------------------------------------------------------------------------
6-----------------------------------------------------------------------------------


Progression (x2)

1----------------------------------------------------------------------------
2-8------8-------8-------11-------9-------8--------8-------8-----------------
3------8-------8-------8--------8-------8--------8-------8-------------------
4---10------10------10-------10------10-------10------10---------------------
5----------------------------------------------------------------------------
6----------------------------------------------------------------------------

1----------------------------------------------------------------------------
2-6-------6-------6------6-------6-------6------6----------------------------
3---5-------5-------5---------5-------5-------5------------------------------
4-----6-------6-------6----6--------6-------6--------------------------------
5----------------------------------------------------------------------------
6----------------------------------------------------------------------------

1----------------------------------------------------------------------------
2-4-----4------4------4---4-----4------4------4------6-----6------6-----6----
3-----5------5------5---------5------5------5------5-----5------5-----5------
4---5------5------5---------6------6------6------6-----6------6-----6--------
5----------------------------------------------------------------------------
6----------------------------------------------------------------------------

Synth

1------------------------------------------
2-3---8----15--15--------------------------
3-0--------12--12--------------------------
4-----5------------------------------------
5------------------------------------------
6------------------------------------------


End - main riff

1-------10--11-10-8----15-14-13----------13-12-11--------------------------------15-
2-8-7-8--------------8----------------------------------------------8------12-15----
3-------------------------------10-12-10-----------8-10-8-10-8-10-------12----------
4-----------------------------------------------------------------------------------
5-----------------------------------------------------------------------------------
6-----------------------------------------------------------------------------------

1-------10--11-10-8----15-14-13----------13-12-11-------------X----------------------
2-8-7-8--------------8----------------------------------------X----------------------
3-------------------------------10-12-10-----------8-10-8---7-5---------------------
4-------------------------------------------------------------5----------------------
5-------------------------------------------------------------3----------------------
6-------------------------------------------------------------3----------------------



Intro (*Just for the original and full version song. Not played in game or cover)

1--------------------------------------------
2--------------------------------------------
3----12-12-----12-12------12-12--------------
4-10--------10---------10--------------------
5--------------------------------------------
6--------------------------------------------
Login or Register to remove this ad.