Ads

Kugutu (Ib) Guitar Tab

Submitted: May 20, 2012 by daniel guerra c...

5
Average: 5 (2 votes)
Download | Listen
Game: Ib
Composer(s): YASUpochi
Style: Transcription

This song is also called Mary's Theme

Click here for a video example.

AutoScroll: Slow | Medium | Fast
Ib (Game) Kugutu (Puppet) - Mary's Theme
Guitar Cover

Song : Kugutu (Puppet) - Mary's Theme
Game : Ib (game)
Cover: Daniel Guerra Caballero (original)
Video: http://youtu.be/NBw6RGgQhXw
Date : May, 2012
Mail : [email protected]
web : http://danielguerracaballero.blogspot.com

First Part
1-----------------------------------------------------------------------------
2-13---------12-13-12-------------------------------------------12---------12-
3-----8-9-12----------12-11-12-9-8-11------------8-9--8-9-11-12----12-14-11---
4-------------------------------------9-10--9-10------------------------------
5-----------------------------------------------------------------------------
6-----------------------------------------------------------------------------

1-------------------------------------------------------------------------
2-------12-13-12----------------------------------------------------------
3--9-12----------12-11-12-9-8-11------------8-9--8-9-11-12-11-8-9---------
4--------------------------------9-10--9-10-------------------------------
5-------------------------------------------------------------------------
6-------------------------------------------------------------------------

Interlude
1-------------------|-------------------|----------------|---------------|
2-------------------|-------------------|------------7-7-|---7-7------12-|
3----12-12----12-12-|----11-11-14-11-11-|-14-11-11---8-8-|-8-8-8---11-11-|
4-14-14-14----14-14-|-13-13-13----13-13-|----13-13-9-----|-------9/13-13-|
5----------14-------|-------------------|----------------|---------------|
6-------------------|-------------------|----------------|---------------|

Second part
1----12-------------------------------------------------------------------
2-12----15-13-12--------------10---------------------------------10-------
3----------------12---9-11-12----12-11------8-9-11-9-11-12-11-12----11----
4--------------------------------------9-10-------------------------------
5-------------------------------------------------------------------------
6-------------------------------------------------------------------------

1----12-------------------------------------------------------------------
2-12----15-13-12--------------10------------------------------------------
3----------------12---9-11-12----12-11------8-9-11-9-11-12-11-8-9---------
4--------------------------------------9-10-------------------------------
5-------------------------------------------------------------------------
6-------------------------------------------------------------------------
Login or Register to remove this ad.