Ads

Blind Alley (Ib) Guitar Tab

Submitted: Jun 30, 2012 by daniel guerra c...

4
Average: 4 (3 votes)
Download | Listen
Game: Ib
Composer(s): YASUpochi
Style: Transcription

This song is also called Garry's Theme 2

Click here for a video example.

AutoScroll: Slow | Medium | Fast
Song : Blind Alley (Garry's Theme)
Game : Ib
Cover: Daniel Guerra Caballero (original)
Video: http://youtu.be/nZ6704yP6L8
Date : June, 2012
Mail : [email protected]
web : http://danielguerracaballero.blogspot.com

1-X--0-3-3-2-----------------X--0-3-3-2----------------
2-0----------3-7-5---5-3-----0----------3-7-5---5-3----
3-0----------------5-----2---0----------------5-----2--
4-2--------------------------2-------------------------
5-2--------------------------2-------------------------
6-0--------------------------0-------------------------

1-X--0-7-7-5---3-2---5-3-2--3--------------------------
2-0----------5-----3----------5---5-3------------------
3-0-----------------------------5-----2----------------
4-2----------------------------------------------------
5-2----------------------------------------------------
6-0----------------------------------------------------

1-X--0-3-3-2-----------------X--0-3-3-2----------------
2-0----------3-7-5---5-3-----0----------3-7-5---5-3----
3-0----------------5-----2---0----------------5-----2--
4-2--------------------------2-------------------------
5-2--------------------------2-------------------------
6-0--------------------------0-------------------------

1-X--0-7-7-5---3-2-5-5-3-2-----------------------------
2-0----------5-------------7-5-8-7-5-3-5-3-5--5--7-----
3-0-------------------------------------------5--7-----
4-2----------------------------------------------------
5-2----------------------------------------------------
6-0----------------------------------------------------

1------------------------------------------------------
2-8-7---7-5--8-7---7-5---7-5-8-8-7---7-5---5-3---------
3-----7---5------7---5-------------7-----5-----2-------
4------------------------------------------------------
5------------------------------------------------------
6------------------------------------------------------

1-X-0-3-3-2----------------X-0-7-7-5-12-12-10----------
2-0---------3-7-5---5-3----0-----------------10-10-12-8
3-0---------------5-----2--0---------------------------
4-2------------------------2---------------------------
5-2------------------------2---------------------------
6-0------------------------0---------------------------

1------------------------------------------------------
2-8-7-3-7-5--8/5-5-3-5---------------------------------
3----------------------2-4-----------------------------
4------------------------------------------------------
5------------------------------------------------------
6------------------------------------------------------

1-X--0-3-3-2-----------------X--0-3-3-2----------------
2-0----------3-7-5---5-3-----0----------3-7-5---5-3----
3-0----------------5-----2---0----------------5-----2-- (x4)
4-2--------------------------2-------------------------
5-2--------------------------2-------------------------
6-0--------------------------0-------------------------

1-x--3-2---------12------------------------------------
2-0------3-7-5---12------------------------------------
3-0--------------12------------------------------------
4-2----------------------------------------------------
5-2----------------------------------------------------
6-0----------------------------------------------------
Login or Register to remove this ad.