Login or Register to remove this ad.

Kaze no Uta ~Leaving Behind the Sound of the Wind~ (Hunter X Hunter) Guitar Tab

Submitted: Jul 14, 2017 by Ttegdap

5
Average: 5 (3 votes)
Download | Listen
Game: Hunter X Hunter
Composer(s): Toshihiko Sahashi
Style: Arrangement, Fingerstyle, Natural harmonics

AutoScroll: Slow | Medium | Fast
                                Kaze no uta kaze no oto wa ta                                  

Based on a Transcription by Coolbreeze

Acoustic Guitar
                             ^    ^                                       ^    ^             
     E  E  E  E  H           Q    H.              E  E  E  E  H           Q    H.            
E||-----------------------|--0-----------------|-----------------------|--0-----------------|
B||-----------------------|--0----3------------|-----------------------|--0----3------------|
G||-----------0--L--------|--0----2------------|-----------0--L--------|--0----2------------|
D||--------4--------------|--2----0------------|--------4--------------|--2----0------------|
A||-----2-----------------|--3-----------------|-----2-----------------|--3-----------------|
E||--0--------------------|--------------------|--0--------------------|--------------------|


  E  E  E  E  H           E  E  E  E  E  E  Q       E  E  E   E  H         
--0--7--7--5--7--------|--5--3--2--0-----0--2----|--0--7--7------7--------|
-----------------------|--------3-----3----------|--------0--10-----------|
--------0--------------|-----2-------------------|-----0------9--L--------|
-----------------------|--0----------------------|------------------------|
-----7-----------------|-------------------------|------------------------|
--0--------------------|-------------------------|--8---------------------|


     NH              ^                                                           
     E  E  E  Q.     E  E     E  E  E  E  H           E  E  E  E  E  E   E   E   
--<>12--------0------2--5--|--3--3--0--2--3--------|------------------------10--|
--<>12-----0---------3-----|-----------1-----------|--------------7--8--10------|
--------0------------2-----|--------0--------------|-----------7----------------|
---------------------4-----|-----2-----------------|--------7-------------------|
---------------------2-----|--0--------------------|-----9----------------------|
-----8---------------------|-----------------------|--7-------------------------|


     NH                                                   ^                        
     E  E  E  Q.     S S E     E  E  E   E  E  E  Q       E  E  E  E  E  E  E  E   
----------------------------|---------------------0----|--7--5--------------------|
--<>12----------------------|------------------0-------|--5-----8--7--5--7--8--5--|
--------------0--------0----|---------------0----------|--5-----5-----------------|
-----------4---------4------|--------2h--4-------------|--5--5--------------------|
--------2----------------2--|-----2--------------------|--------------------------|
-----0----------------------|--0-----------------------|--------------------------|


  E  E  E  E  H           E  E  E  E  E  E  E  E     E  E  E  E  Q    E  E   
--5-----7--------------|--5--3--2--0-----0--2--3--|--0----------------0--2--|
-----------0--L--------|--------------3-----------|-------------------------|
--------0--------------|-----------0--------------|-----------0--L----------|
-----------------------|--------4-----------------|--------4----------2-----|
-----7-----------------|-----2--------------------|-----2-------------------|
--8--------------------|--0-----------------------|--0----------------------|


                                           |--3-|                                       
  Q.     S S Q    E  E     Q.     S  S  E  S  S S  E   E     S  S E  E  E  E  E  E  E   
--3------3-7-5----3--5--|--7------7-10--9--9-10-9---------|--7----7--------------------|
--1----------3----------|--0----------------------12--10--|----10----------------------|
--0----------2----------|--0------------------------------|-------------9--L--------9--|
--2----------0----------|--0-----------11-----------------|----------7-----------7-----|
--3---------------------|---------------0-----------------|-------9-----------9--------|
------------------------|--3------------------------------|--7-------------------------|


  E  E  E  Q    E  Q       E  E  E  E  Q.     E     E  E  E  E  H         
------------------------|-----0--0-----0------2--|-----------------------|
------------------------|--0--------3------------|--3--------3--L--------|
--8-------------8-------|--0---------------------|--------2--------------|
--------7--9-------9----|--2---------------------|-----4-----------------|
-----9------------------|--3---------------------|--5--------------------|
--7---------------------|------------------------|-----------------------|


  E  E  E  E  Q.     E     E  E  E  E  H           E  E  E  E  Q.     E   
-----0--0-----0------2--|-----------------------|-----0--0-----0------3--|
--0--------3------------|--3--------3--L--------|--0--------3------------|
-----------0--L---------|--------2--------------|--------0--4------------|
--------4---------------|-----4-----------------|-----2------------------|
-----2------------------|--2--------------------|--3---------------------|
--0---------------------|-----------------------|------------------------|


                                                     v                  
  E  E  H        Q       E  E  E   E  E  E  E  E     W                  
--2-------------------|--0------------------0-----|--0----------------||
--------3--------3----|------------------0-----0--|--0----------------||
--------2-------------|---------------0-----------|--0----------------||
-----4----------------|--------2S--4--------------|--4----------------||
--5-------------------|-----2---------------------|--2----------------||
----------------------|--0------------------------|--0----------------||




Duration Legend
---------------
W - whole
H - half
Q - quarter
E - 8th
S - 16th
T - 32nd
X - 64th
. - note dotted
|-n-|  - n-tuplets


Tablature Legend
----------------
L - tied note
x - dead note
g - grace note
(n) - ghost note
> - accentuded note
NH - natural harmonic
AH - artificial harmonic
TH - tapped harmonic
SH - semi harmonic
PH - pitch harmonic
h - hammer on
p - pull off
b - bend
br - bendRelease
pb - preBend
pbr - preBendRelease
brb - bendReleaseBend
\n/ - tremolo bar dip
\n - tremolo bar dive
-/n - tremolo bar Release up
/n\ - tremolo bar inverted dip
/n - tremolo bar return
-\n - tremolo bar Release down
S - shift slide
s - legato slide
/ -  slide into from below or out of upwards
\ -  slide into from above or out of downwards
~ - vibrato
W - wide vibrato
tr - trill
TP - tremolo picking
T - tapping
S - slap
P - pop
< - fade in
^ - brush up
v - brush down
Login or Register to remove this ad.