Kaze no Uta ~Leaving Behind the Sound of the Wind~ (Hunter X Hunter) Guitar Tab

Submitted: Jul 07, 2017 by Coolbreeze (Last updated: Jul 07, 2017)

5
Average: 5 (2 votes)
Download | Listen
Game: Hunter X Hunter
Composer(s): Toshihiko Sahashi
Style: 2 or more instruments, Transcription

AutoScroll: Slow | Medium | Fast
				Kaze no Uta ~Leaving Behind the Sound of the Wind~
					     ~Hunter X Hunter O.S.T 2~

Music by Toshihiko Sahashi
Tabbed by Coolbreeze
Tempo = 72

Standard Tuning


Guitar 1

                         ^    ^                                 
     W                   Q    H.              W                 
E||-------------------|--------------------|-------------------|
B||-------------------|--5----3------------|-------------------|
G||-------------------|--4----2------------|-------------------|
D||-------------------|--5----4------------|-------------------|
A||-------------------|--3----5------------|-------------------|
E||-------------------|--------------------|-------------------|


  ^    ^                                                                    
  Q    H.               E   E   E   E   H           E  E  E  E  E  E  Q     
--------------------|----------------------------|--5--3--2--0-----0--2----|
--5----3------------|------12--12------12--------|--------------3----------|
--4----2------------|--------------14------------|-------------------------|
--5----4------------|--14------------------------|-------------------------|
--3----5------------|----------------------------|-------------------------|
--------------------|----------------------------|-------------------------|


                           ^                                            
  E  E  E  E  H            Q    H        E  E     E  E  E  E  H         
--0--7--7--5--7--------|--19-------------2--5--|--3--3--0--2--3--------|
-----------------------|--17-------------------|-----------------------|
-----------------------|-----------------------|-----------------------|
-----------------------|-----------------------|-----------------------|
-----------------------|-----------------------|-----------------------|
-----------------------|-----------------------|-----------------------|


  H        E  E   E   E      Q    H.              W                 
---------------------10--|---------------------|-------------------|
-----------7--8--10------|--12-----------------|-------------------|
-------------------------|---------------------|-------------------|
-------------------------|---------------------|-------------------|
-------------------------|---------------------|-------------------|
-------------------------|---------------------|-------------------|


  E  E  E  E  E  E  E  E     Q    Q    H           E  E  E  E  E  E  E  E   
--7--5--3--2--0--2--3--0--|--5----7-------------|--5--3--2--0-----0--2--3--|
--------------------------|---------------------|--------------3-----------|
--------------------------|---------------------|--------------------------|
--------------------------|---------------------|--------------------------|
--------------------------|---------------------|--------------------------|
--------------------------|---------------------|--------------------------|


  H        Q    E  E     Q.     S S Q    E  E     Q.     S  S E  T  T S E  E   
--0-------------0--2--|--3------3-7-5----3--5--|--7------7-10-9--9-10-9-7--5--|
----------------------|------------------------|------------------------------|
----------------------|------------------------|------------------------------|
----------------------|------------------------|------------------------------|
----------------------|------------------------|------------------------------|
----------------------|------------------------|------------------------------|


  S S Q.     H           W                    E   E   E   E   Q.      E   
--7-5-7---------------|-------------------|------12--12------12------14--|
----------------------|-------------------|--12----------15--------------|
----------------------|-------------------|------------------------------|
----------------------|-------------------|------------------------------|
----------------------|-------------------|------------------------------|
----------------------|-------------------|------------------------------|


   W                    E   E   E   E   Q.      E      W                 
--------------------|------12--12------12------14--|--------------------|
--15----------------|--12----------15--------------|--15----------------|
--------------------|------------------------------|--------------------|
--------------------|------------------------------|--------------------|
--------------------|------------------------------|--------------------|
--------------------|------------------------------|--------------------|


   E   E   E   E   Q.      E      H.            Q        W                 
------12--12------12------15--|--14------------------|--12----------------|
--12----------15--------------|----------------15----|--------------------|
------------------------------|----------------------|--------------------|
------------------------------|----------------------|--------------------|
------------------------------|----------------------|--------------------|
------------------------------|----------------------|--------------------|


  W                  
--L----------------||
-------------------||
-------------------||
-------------------||
-------------------||
-------------------||




Guitar 2

     E  E  E  E  H           W                   E  E  E  E  H         
E||-----------------------|-------------------|-----------------------|
B||-----------------------|-------------------|-----------------------|
G||-----------0--L--------|-------------------|-----------0--L--------|
D||--------4--------------|-------------------|--------4--------------|
A||-----2-----------------|-------------------|-----2-----------------|
E||--0--------------------|-------------------|--0--------------------|


  W                   E  E  Q    H           E  E  Q    H         
-------------------|--------0----L--------|----------------------|
-------------------|-----0----------------|--------3----L--------|
-------------------|----------------------|-----2----------------|
-------------------|--2-------------------|--0-------------------|
-------------------|----------------------|----------------------|
-------------------|----------------------|----------------------|


                                          ^                             
  E  E  E  E  H           E  E  E  Q.     Q       E  E  E  E  H         
-----------------------|------------------2----|-----------------------|
-----------5--L--------|-----------5------3----|-----------1--L--------|
--------4--------------|--------4---------2----|--------0--------------|
-----5-----------------|-----5------------4----|-----2-----------------|
--3--------------------|--3---------------2----|--0--------------------|
-----------------------|-----------------------|-----------------------|


  E  E  E  E  H           E  E  E  Q.     S S E     E  E  E  E  E  E  Q     
-----------------------|-------------------------|--------------------0----|
-----------3--L--------|-------------------------|-----------------0-------|
--------2--------------|-----------0--------0----|--------------0----------|
-----4-----------------|--------4---------4------|--------2--4-------------|
--2--------------------|-----2----------------2--|-----2-------------------|
-----------------------|--0----------------------|--0----------------------|


  ^                                                                     
  E  E  E  E  H           E  E  E  E  H           E  E  E  E  H         
--3-----0--3--L--------|-----------------------|-----------------------|
-----0-----------------|-----------5--L--------|-----------------------|
--0--------------------|--------4--------------|-----------0--L--------|
-----------------------|-----5-----------------|--------4--------------|
-----------------------|--3--------------------|-----2-----------------|
-----------------------|-----------------------|--0--------------------|


                          ^        ^           ^        ^         
  E  E  E  Q.     Q       H        H           H        H         
-----------------------|--0-----------------|-----------0--------|
-----------------------|--1--------3--------|--3--------2--------|
-----------0-----------|--0--------2--------|--4--------2--------|
--------4---------2----|--2--------4--------|--5--------2--------|
-----2-----------------|--3--------5--------|--5--------0--------|
--0--------------------|--------------------|--3-----------------|


                                                     ^                 
  E  E  E  Q    E  E  E     E  E  E  Q    E  Q       W                 
-------------------------|------------------------|-------------------|
-----------5----------5--|--4-------------4-------|--5----------------|
--------2-------2--4-----|--------2--4-------4----|--4----------------|
-----4-------------------|-----4------------------|--5----------------|
--2----------------------|--2---------------------|--3----------------|
-------------------------|------------------------|-------------------|


  E  E  E  E  H           E  E  E  E  H           E  E  E  E  H         
-----------------------|--------2--3--L--------|-----------------------|
--3--------3--L--------|-----------------------|-----------3--L--------|
--------2--------------|-----4-----------------|--------2--------------|
-----4-----------------|--2--------------------|-----4-----------------|
--5--------------------|-----------------------|--2--------------------|
-----------------------|-----------------------|-----------------------|


                                ^                                        
  E  E  E  E  H           E  E  H.              E  E  E  E  E  E  E  E   
-----------------------|---------------------|--------------------0-----|
-----------5--L--------|--------3------------|-----------------0-----0--|
--------4--------------|--------2------------|--------------0-----------|
-----5-----------------|-----4---------------|--------2--4--------------|
--3--------------------|--5------------------|-----2--------------------|
-----------------------|---------------------|--0-----------------------|


  ^                  
  W                  
--0----------------||
--0----------------||
--0----------------||
--4----------------||
--2----------------||
--0----------------||
Login or Register to remove this ad.

4 comments on Kaze no Uta ~Leaving Behind the Sound of the Wind~

Really nice

5

Sounds perfect note for note, just not quite the way I would play it. Good work. May I at some point make a solo arrangement of this tune?

I'd play your arrangement =)

I like this duet, but I'd play your arrangement =)

▲ That's the closest thing I

5

▲ ▲ ▲ ▲ ▲ That's the closest thing I have to an upvote =)

Oh just noticed the comment!

At some point here ill have to look into making this a solo arrangement too then!

Woops forgot I had already made this one!

https://www.gametabs.net/hunter-x-hunter/kaze-no-uta-leaving-behind-soun...