Ads

Main Theme (Howl's Moving Castle) Guitar Tab

Submitted: Jun 10, 2021 by Mister_c19 (Last updated: Jun 14, 2021)

3.333335
Average: 3.3 (3 votes)
Download | No audio :(
Game: Howl's Moving Castle
Composer(s): Joe Hisaishi
Style: Fingerstyle

AutoScroll: Slow | Medium | Fast
e|-------------|-------------|-------------|-----|-------|-|-------|-----|---------|-----|-----------|-0---0-|-^-0-2-----|
B|-0-1-0-1-0-1-|---0---0---0-|-------------|-----|-0-----|-|-------|-0---|---------|-----|---------0-|-------|-|-1---3-1-|
G|-0-2-0-2-0-2-|-2---2---2---|-0-2-0-2-0-2-|-----|-------|-|-----0-|---0-|-^-2-0---|-0---|-------0---|---0---|-|-2-------|
D|-------------|-4---4---4---|-2-4-2-4-2-4-|-4-1-|---|-1->-|---2---|---2-|-|-1---4-|---0-|-----2-----|---2---|-|-2-------|
A|-------------|-------------|-------------|-6-2-|---|-2->-|-2-----|-0---|-|-2-----|---2-|---2-------|-0-----|-----------|
E|-------------|-------------|-------------|-5-2-|---v-2->-|-------|-----|---------|-0---|-0---------|-------|-----------|
 
 
e|-----|-----------|-2---0-|-------|-0-----|-----|---------|-------|---|-3-|-2-|-3-|-2-0---------|-|-------|-------|-------|
B|-3---|---------3-|---0---|-3-2-3-|-----3-|-2-0-|---------|-0-----|---|---|---|---|-----4-1-0---|-|-------|-------|-------|
G|---4-|---4---4---|---0---|-------|-------|-----|-^-2-0-2-|---2---|---|---|---|---|-------------|-|---0-0-|---0-0-|---0-0-|
D|---4-|---4-4-----|-------|-------|---0---|-----|-|-0-----|-----2-|-4-|---|---|---|-------------|-|---2-2-|---2-2-|---2-2-|
A|-----|-----------|-4-----|-------|-2-----|-0---|-|-------|-------|-2-|---|---|---|-----------2->-|-------|-2-----|-------|
E|-3---|-3---------|-------|-2-----|-------|-----|-|-3-----|-2-----|---|---|---|---|-------------|-|-0-----|-------|-0-----|
 
 
e|-------|-------|---------|-------|-------|-0---0-|-^-0-2-----|-------|-------|-2---0-|-------|-0-----|------|---------|-------|
B|-------|-0---0-|---------|-------|-----0-|-------|-|-1---3-1-|-3-----|-----3-|---0---|-3-2-3-|-----3-|-2----|---------|-0-----|
G|-----0-|---0---|-^-2-0---|-0-----|---0---|---0---|-|-2-------|-----0-|---0---|---0---|-------|-------|-----0|-^-2-0-2-|---2---|
D|---2---|---2---|-|-1---4-|-----2-|-2-----|---2---|-|-2-------|---0---|-4-----|-------|-------|---0---|---2--|-|-0-----|-----2-|
A|-2-----|-0-----|-|-2-----|---2---|-------|-0-----|-----------|-------|-------|-4-----|-------|-2-----|-0----|-|-------|-------|
E|-------|-------|---------|-0-----|-0-----|-------|-----------|-3-----|-------|-------|-2-----|-------|------|-|-3-----|-2-----|
 
 
e|-------|-------|-------|---------|-------|---------|-0---0-|-^-0-2-----|-------|-------|-2---0-|-----------|-0-----|-----------|
B|-----0-|-------|-0---0-|---------|-0-----|-------0-|-------|-|-1---3-1-|-3-----|-----3-|---0---|---3-2-1-2-|-----3-|---2-0---0-|
G|---4---|-----0-|---0---|-^-2-0---|-------|---0-----|---0---|-|-2-------|-----0-|---4---|---0---|-----------|-------|-------3---|
D|-4-----|---2---|---2---|-|-1---4-|-----2-|-2-------|---2---|-|-2-------|---0---|-4-----|-------|-----------|---0---|-----------|
A|-2-----|-2-----|-0-----|-|-2-----|---2---|---------|-3-----|-----------|-------|-------|-4-----|-----------|-2-----|-0---------|
E|-------|-------|-------|---------|-0-----|-1---0-3-|-------|-----------|-3-----|-------|-------|-2---------|-------|-----------|
 
 
e|---------|-------|-------|-------|-----|-------|-------|-------|-------|-----|-------|---------|-------|-------|-----------|------|
B|-0-------|-------|-0-----|-------|-----|-----0-|-1---0-|-------|-----0-|-----|-1---0-|---------|-0-----|-----0-|-0-2-0---0-|-3-2-0|
G|-----2-0-|---1-3-|-------|-------|-----|-------|---2---|-2-0---|-0-2---|-----|---2---|-^-2-0-2-|-----0-|-------|-------3---|------|
D|---0-----|-------|-------|-1-----|---4-|-1-----|-0-----|-0---4-|-------|-0-0-|-0-----|-|-0-----|---0---|---0---|-----------|------|
A|---------|-4-----|---2-4-|---2---|-2---|---2---|-------|-------|-------|-----|-------|---------|-------|-------|-2---------|-2----|
E|-3-------|-2-----|-------|-----2->-----|-----2-|-------|-------|-3-----|-3---|-------|---------|-3-----|-3-----|-----------|------|
 
 
e|-------|-------|-------|-------|-------|-2-----|---------|---0-2-|-3---------|-------------|---------|-----0-|-2---------|---0---|
B|-----2-|-------|-3---3-|-3-2-0-|-2-----|---2---|-^-4---4-|-4-----|-----------|-------------|-^-2---2-|-2-3---|-----------|-----3-|
G|-3-----|-------|-------|-------|-----3-|-----3-|-|-4---4-|-------|---4-2-0---|-------------|-|-2---2-|-------|---2-0-----|-------|
D|---4---|-4---4-|---0---|-------|---4---|-------|-|-4-4---|-------|---------4-|-5-4-2-0-2-0-|-|-2-2---|-------|-0-----4-2-|-0-----|
A|-------|---4---|-2-----|-2-----|-------|-------|-|-2-2---|-------|-----------|-------------|-|-4-----|-0-----|-----------|-------|
E|-2-----|-2-----|-------|-------|-2-----|-------|---------|-------|-0---------|-------------|---------|-------|-----------|-------|
 
 
e|-------|-^-0-----|-------|-----2-|-5---3-|-2---0-|------------|----------|-----------|-------|-------|---------|-------|-------|-0---0-|-^-0-2-----|
B|-2-1-2-|-|---3-2-|-0---0-|-2-----|-------|-------|-4----------|--0-2-0---|-----------|-------|-0---0-|---------|-------|-----0-|-------|-|-1---3-1-|
G|-------|-|-------|---3---|-------|---5---|---5---|----2-4-2-0-|--------4-|-----------|-----0-|---0---|-^-2-0---|-0-----|---0---|---0---|-|-2-------|
D|-------|-|-2-----|-------|---4---|-------|-------|------------|----------|---2-4-2-1-|---2---|---2---|-|-1---4-|-----2-|-2-----|---2---|-|-2-------|
A|-------|-|-3-----|-------|-------|-0-----|-0-----|-2----------|2---------|-2---------|-2-----|-0-----|-|-2-----|---2---|-------|-0-----|-----------|
E|-4-----|---------|-2-----|-2-----|-------|-------|------------|----------|-----------|-------|-------|---------|-0-----|-0-----|-------|-----------|
 
 
e|-------|-------|-2---0-|-------|-0-----|-------|---------|-------|-------|-------|-------|---------|-------|---------|-0---0-|-^-0-2-----|-------|
B|-3-----|-----3-|---0---|-3-2-3-|-----3-|-2---0-|---------|-0-----|-----0-|-------|-0---0-|---------|-------|-------0-|-------|-|-1---3-1-|-3-----|
G|-----0-|---0---|---0---|-------|-------|-------|-^-2-0-2-|---2---|---4---|-----0-|---0---|-^-2-0---|-0-----|---0-----|---0---|-|-2-------|-----0-|
D|---0---|-4-----|-------|-------|---0---|---2---|-|-0-----|-----2-|-4-----|---2---|---2---|-|-1---4-|-----2-|-2-------|---2---|-|-2-------|---0---|
A|-------|-------|-4-----|-------|-2-----|-0-----|-|-------|-------|-2-----|-2-----|-0-----|-|-2-----|---2---|---------|-3-----|-----------|-------|
E|-3-----|-------|-------|-2-----|-------|-------|-|-3-----|-2-----|-------|-------|-------|---------|-0-----|-1---0-3-|-------|-----------|-3-----|
 
 
e|-------|-2---0-|-----------|-0-----|-----------|---------|-------|-----------|-----------|-----------|-----------|---------|-------|
B|-----3-|---0---|---3-2-1-2-|-----3-|---2-0---0-|-0-------|-------|-0---0---0-|-----0---0-|-----0---0-|---0-2-0---|-^-0-----|-------|
G|---4---|---0---|-----------|-------|-------3---|-----2-0-|---1-3-|---4---4---|---4---4---|---4---4---|---------3-|-|-0-2-0-|---1-3-|
D|-4-----|-------|-----------|---0---|-----------|---0-----|-4-----|-----------|-----------|-----------|---------0-|-|-2-----|-4-----|
A|-------|-4-----|-----------|-2-----|-0---------|---------|-------|-2---------|-2---------|-2---------|-2---------|-|-2-----|-------|
E|-------|-------|-2---------|-------|-----------|-3-------|-2-----|-----------|-----------|-----------|-----------|---------|-2-----|
 

e|-------------|-----|-||
B|-^-0---0---0-|-^-0->-||
G|-|-4-4---4---|-|-4->-||
D|-|-4---------|-|-4->-||
A|-|-2---------|-|-2->-||
E|-------------|-----|-||
Login or Register to remove this ad.

1 comment on Main Theme

crediting the OP

just highlighting this version is a carbon copy of an arrangement floating around the web (Songsterr for example). This arrangement is a slightly inaccurate Sungha Jung version based off of: https://www.youtube.com/watch?v=2Z603ccaj74