Ads

For You (Hourou Musuko) Guitar Tab

Submitted: Jun 28, 2013 by Basisti94

5
Average: 5 (2 votes)
Download | Listen
Game: Hourou Musuko
Composer(s): Satoru Kousaki, Keiichi Okabe
Style: Arrangement, Fingerstyle

AutoScroll: Slow | Medium | Fast
                            For You
                                
Hourou Musuko / Wandering Son
Rie Fu
Arranged for guitar by Basisti94 (Miro Laaksonen)
27.6.2013


Started this arrangement ages ago but didn't finish it until now. 
The rhythm is bit tricky so pay attention to it.

I included lyrics and chords at the end.


Capo 2 
Tempo ~ 85


     H        Q    Q       E  E  E  E  E  E  E  E     E  E  E  E  E  E  E  E   
E||--2--------0---------|--0-----0--2--0-----------|--------------------------|
B||--3-------------2----|-----3-----------3-----3--|--------2--3--3-----2-----|
G||-----------2----2----|--2-----------------2-----|-----0--------------------|
D||--0------------------|--------------------------|--0--------------4--------|
A||-----------0----0----|--------------------------|-----------------------5--|
E||---------------------|--------------------------|--------------------------|


  H        E  E  E  S S    E  E  E  S S E  E  E  S S  
--2-----------------0-2-|--L--------0-0-L----------0-|
--3--------------3------|--3-----3------2--------3---|
--------------2---------|--2--2---------2-----2------|
------------------------|--0---------------2---------|
------------------------|---------------0------------|
------------------------|----------------------------|


  E  S S S E  S S S S S S E  S    E  E  E  S S E  E  E  S S  
-------0---2--0--------------2-|--L--------0-0-L----------0-|
-----3------------3---0-L-3----|--3-----3------2--------3---|
--4------4--------------0------|--2--2---------2-----2------|
-----4--------------0----------|--0---------------2---------|
--2----------------------------|---------------0------------|
----------------3--------------|----------------------------|


  E  S E.  Q    E  E  S S    E  E  E  S S E  E  E  S S  
----------------------0-2-|--L--------0-0-L----------0-|
-----3-------------3------|--3-----3------2--------3---|
--2----4---0----2---------|--2--2---------2-----2------|
--4--------0--------------|--0---------------2---------|
--2-----------------------|---------------0------------|
-----------3--------------|----------------------------|


  E  S S S E  S S S S S S E  S    E  E  E  S S E  E  E  S S  
-------0---2--0--------------2-|--L--------0-0-L----------0-|
-----3------------3---0-L-3----|--3-----3------2--------3---|
--4------4--------------0------|--2--2---------2-----2------|
-----4--------------0----------|--0---------------2---------|
--2----------------------------|---------------0------------|
----------------3--------------|----------------------------|


  E  S E.  E  E.  E.  S S    E  E  E  E  E  S S S S E   
--------------------------|-----2--2-----0------0------|
-----3--------3---2---3-3-|--------3----------3---3----|
--2----4---0--------------|-----2-----2---------2------|
--4--------0--------------|--0--------------2-------2--|
--2-----------------------|--------------0-------------|
-----------3--------------|----------------------------|


  E  E  E  E  E  S S E  E     E  E  E  E  E  S S S S E   
--------------2--5-5-------|-----2--2-----0------0------|
-----3--3---------------0--|--------3----------3---3----|
--------4------------0-----|-----2-----2---------2------|
-----4-----4---------------|--0--------------2-------2--|
--2------------------------|--------------0-------------|
--------------3------------|----------------------------|


  E  E  E  E  E  S S E  E     E  E  E  E  S S E  E  E   
--------------2--5-5-------|-----5--5-----7-5----------|
-----3--3------------------|--------3------------------|
---------------------0-----|-----2-----2------------7--|
-----4-----4---------------|--0------------------7-----|
--2---------------------0--|------------------7-----7--|
--------------3------------|--------------5------------|


  E  S S E  S S E  E  E  E     E  E  E  E  S S S S S S S S  
-----2-2--------------------|-----2--2-----0-----0---------|
--5------5--3-3----------0--|--------3-------3-------3-----|
----------------------0-----|-----2-----2----------2-----2-|
-----4------4------0--------|--0---------------2-------2---|
--2-------------------------|--------------0---------------|
----------------3-----------|------------------------------|


  S Q    S S S Q.     E     E  E  E  E  E  E  E  E   
----------------------2--|--L-----------------------|
----3--------3-----------|-----0--3-----------------|
--4------2-4---0---------|-----------2-----------2--|
--4------------0---------|--------------------------|
--2----------------------|--2--2--2--2--------------|
---------------3---------|--------------3--3--3--3--|


  S S S S E  S S E  E  E  E     E  E  E  E  E  E  E  S S  
-------------0------------5--|-----------1-----------0---|
--0-3---2------3-------------|-----3--3--------3--3----3-|
-----------------------------|---------------------------|
-----------------------------|---------------------------|
--0---0---0--0---2--2--2--2--|--0--0--0--0--0--0--0--0---|
-----------------------------|---------------------------|


  S  S  E  E  E  Q    S S S S    E  E  E  S S E  E  E  S S  
----------------------------0-|--2--------0-0-L----------0-|
--2h-3p-2-----------------3---|--3-----3------2--------3---|
-----------2------------2-----|--2--2---------2-----2------|
--------------2---------------|--0---------------2---------|
-----------------4----L-------|---------------0------------|
------------------------------|----------------------------|


  E  S S S E  S S S S S S E  S    E  E  E  S S E  E  E  S S  
-------0---2--0--------------2-|--L--------0-0-L----------0-|
-----3------------3---0-L-3----|--3-----3------2--------3---|
--4------4--------------0------|--2--2---------2-----2------|
-----4--------------0----------|--0---------------2---------|
--2----------------------------|---------------0------------|
----------------3--------------|----------------------------|


  E  S E.  Q    E  E  E     E  E  E  E  E  E  E  E   
----------------------0--|--2--------5--2--0--------|
-----3-------------3--2--|--3-----3--------------3--|
--2----4---0----2--4-----|--2--2--------------2-----|
--4--------0-------------|--0--------------2--------|
--2----------------------|--------------0-----------|
-----------3-------------|--------------------------|


  E  S S S E  S S S S S S E  S    E  E  E  S S E  E  E  S S  
-------0---2--0--------------2-|--L--------0-0-L----------0-|
-----3------------3---0-L-3----|--3-----3------2--------3---|
--4------4--------------0------|--2--2---------2-----2------|
-----4--------------0----------|--0---------------2---------|
--2----------------------------|---------------0------------|
----------------3--------------|----------------------------|


  S E  E  S S E.  Q.        E  E  E  E  E  E  E  E     E  E  E  E  E  E  E  E   
--3-2-------3-2----------|-----------2--5-----0-----|--3--------3--5-----------|
-------3--3-------3------|--------3--------------3--|--------3-----------2--3--|
--0----------------------|-----2-----------2--------|-----4-----------2--------|
--0---------2------------|--0-----------------------|--------------------------|
--2----2----0------------|--------------------------|--------------------------|
-------------------------|--------------------------|--3-----------------------|


  E  E  E  E  E  E  E  E     E  E  E  E  E  E  E  E     W                  
-----------2--5-----0-----|--3--------5-----2--0-----|-------------------||
--------3--------------3--|--------3-----5--------3--|--3----------------||
-----2-----------2--------|-----4--------------------|-------------------||
--0-----------------------|--------------------------|--0----------------||
--------------------------|--------------------------|-------------------||
--------------------------|--3-----------------------|-------------------||




Chords/Lyrics:

Chords relative to capo

Capo 2

        D      A
I wanna cry for you

 Bm      G        D      A     Bm        G
Anata to wakeau   megumi no   shizuku o
        D        A
I wanna smile for you

 Bm         G        
Jibun no tame ja nai

D   A  Bm    G
Ai  no uta o mitsuketai


D           A 
gSubete kimi no tame nih

Bm             G
Mata sonna koto itteru

D         A
Joudan no furi wa raku ne

Bm         G 
Watashi mo shitteru

D       A      Bm        G
Souiu jibun ni yotteru dake

 D        A            Bm       G       
Hontou wa nani mo kamo jibun no tame

   Bm       G        A            Bm
Chotto dake   kono machi no ondo ni 

Dm                (riff from the bar 24 on the tab above)
narete kita koro


        D      A
I wanna cry for you

 Bm      G           D      A   Bm       G
Anata to waraetara   kokoro mo hareteku

        D        A
I wanna dream for you

 Bm       G
Yume kara samete mo

D     A   Bm      A
Wasurenai uta ga kikoeru

D  A  G  A  D  A
 
G      A        D 
  Dream for you





Duration Legend
---------------
W - whole
H - half
Q - quarter
E - 8th
S - 16th
T - 32nd
X - 64th
. - note dotted
|-n-|  - n-tuplets


Tablature Legend
----------------
L - tied note
x - dead note
g - grace note
(n) - ghost note
> - accentuded note
NH - natural harmonic
AH - artificial harmonic
TH - tapped harmonic
SH - semi harmonic
PH - pitch harmonic
h - hammer on
p - pull off
b - bend
S - shift slide
s - legato slide
/ -  slide into from below or out of upwards
\ -  slide into from above or out of downwards
~ - vibrato
W - wide vibrato
tr - trill
TP - tremolo picking
T - tapping
S - slap
P - pop
< - fade in
^ - brush up
v - brush down
Login or Register to remove this ad.