Ads

Remorse (Hotline Miami 2: Wrong Number) Guitar Tab

Submitted: Aug 18, 2015 by Matatiahu

5
Average: 5 (2 votes)
Download | Listen
Game: Hotline Miami 2: Wrong Number
Composer(s): Various Composers
Style: Arrangement, Artificial harmonics, Fingerstyle, Natural harmonics

Click here for a video example.

AutoScroll: Slow | Medium | Fast
                                   Remorse
                        Hotline Miami 2: Wrong Number
                                   Scattle


Tune: Standard


Capo on the 1st fret





E||-----------------|--2--------------|-----------------|--2--------------|
B||--3--------------|--0--------------|--3--------------|-----------------|
G||-----------------|-----------------|--2--------------|--0--------------|
D||-----------------|--2--------------|-----------------|--2--------------|
A||--3--------------|-----------------|--3--------------|-----------------|
E||-----------------|-----------------|-----------------|-----------------|

                                                        ~
-----------------|-----------------|-----------------|-----------------|
--3--------------|--7--------------|--3-------0------|--7--------------|
--4--------------|--7--------------|------0P2--------|--7--------------|
-----------------|-----------------|----2------------|-----------------|
--3--------------|--7--------------|--3--------------|-----------------|
-----------------|-----------------|-----------------|--0--------------|

-----------------|-----------------|-----------------|-----------------|
--------0-------0|--------0-------0|--------0-------0|------------3---0|
----0P2-----0P2--|----0P2-----0P2--|----0P2-----0P2--|----0P2-------5--|
-----------------|-----------------|-----------------|-----------------|
--3--------------|-----------------|--3--------------|-----------------|
-----------------|--0--------------|-----------------|--0--------------|

-----------------|-----------------|-----------------|----------------0|
--------0-------0|--------0---0----|--------0-3-0---0|--------0-3---3--|
----0P2-----0P2--|----0P2---2---0--|----0P2-------2--|----0P2-----4----|
-----------------|----------------0|-----------------|-----------------|
--3--------------|-----------------|--3--------------|-----------------|
-----------------|--0--------------|-----------------|--0--------------|

-----------------|-----------------|-----------------|-----------------|
-----------------|----------------0|-----------------|----------------0|
------------0----|--------------2--|-----------------|--------------5--|
------2---4------|--4-----0--------|-----------------|-----------------|
--3--------------|--2--------------|--3--------------|--7--------------|
--3--------------|--0--------------|--3--------------|--7--------------|

-----------------|------<>0--------|-----------------|-----------------|
-----------------|----<>0---<>0----|-----------------|-----------------|
--0--------------|-----------------|-----------------|-----------------|
--0--------------|-----------------|-----------------|-----------------|
-----------------|-----------------|--3--------------|--2--------------|
--8--------//////|//0--------------|--3--------------|--0-0-0---0------|

--0---3---2-0----|-----------------|-----------------|-----------------|
--1--------------|--0---------1-0--|-----------------|-----------------|
--0--------------|--0---2-0--------|-----------------|-----------------|
-----------------|-----------------|-----------------|--------------0P2|
--3--------------|----------------2|--3--------------|--2--------------|
-----------------|--0--------------|--3--------------|--0--------------|

------<>0--------|------<>7--------|------<>5--------|-----------------|
--------<>0------|--------<>7------|--------<>5------|-----------------|
------------<>0--|------------<>7--|------------<>5--|-----------------|
-----------------|--2--------------|-----------------|-----------------|
--3--------------|--2--------------|--3--------------|--2--------------|
--3--------------|--0--------------|--3--------------|--0--------------|

--0--------------|-----------------|-----------------|-----------------|
--------1-------0|-----------------|-----------------|-----------------|
------0-------0--|----------------0|--------0--------|-----------------|
----2-------2----|------2-4-----4--|------2---------4|--4-----0-----0-2|
--3--------------|----2-------2----|--3--------------|------2----------|
----------------0|-----------------|----3------------|----0------------|

-----------------|-----------------|-----------------|--------------2--|
-----------------|-----------------|-----------------|--0-----3--------|
--------0-------0|--------0-------0|--------0--------|-----------------|
------2-------2--|------2-------2--|------2----------|------2----------|
--3---------3----|----2-------2----|--3--------------|----2------------|
----3------------|--0--------------|----3------------|--0--------------|

--3--------------|-----------------|-----------------|-----------------|
--------0-------0|--------0-------0|--------0-------0|------------3---0|
----0P2-----0P2--|----0P2-----0P2--|----0P2-----0P2--|----0P2-------5--|
-----------------|-----------------|-----------------|-----------------|
--3--------------|-----------------|--3--------------|-----------------|
-----------------|--0--------------|-----------------|--0--------------|

-----------------|-----------------|-----------------|----------------0|
--------0-------0|--------0---0----|--------0-3-0---0|--------0-3---3--|
----0P2-----0P2--|----0P2---2---0--|----0P2-------2--|----0P2-----4----|
-----------------|----------------0|-----------------|-----------------|
--3--------------|-----------------|--3--------------|-----------------|
-----------------|--0--------------|-----------------|--0--------------|

--0---0---2-3----|--2-----------5/7|-----------------|------<>0-----8P7|
--0--------------|--0-----3--------|--0--------------|<>0--------------|
--0--------------|--0---------0----|--0--------------|<>0--------------|
-----------------|------2----------|-----------------|-----------------|
--3--------------|----2------------|-----------------|-----------------|
-----------------|--0--------------|--8--------------|--0--------------|

-----------------|------<>0--------|-----10----------|--2-----3--------|
--0--------------|<>0--------------|-----10----12----|--3-----5--------|
--0--------------|<>0--------------|-----------11----|-----------------|
-----------------|-----------------|-----------------|-----------------|
-----------------|-----------------|---10------------|-----------------|
--8--------------|--0--------------|--8--------------|--0--------------|

--3--------------|-----------------|-----------------|-----------------|
--------0-------0|--------0-------0|--------0-------0|------------3---0|
----0P2-----0P2--|----0P2-----0P2--|----0P2-----0P2--|----0P2-------5--|
-----------------|-----------------|-----------------|-----------------|
--3--------------|-----------------|--3--------------|-----------------|
-----------------|--0--------------|-----------------|--0--------------|

-----------------|-----------------|-----------------|----------------0|
--------0-------0|--------0---0----|--------0-3-0---0|--------0-3---3--|
----0P2-----0P2--|----0P2---2---0--|----0P2-------2--|----0P2-----4----|
-----------------|----------------0|-----------------|-----------------|
--3--------------|-----------------|--3--------------|-----------------|
-----------------|--0--------------|-----------------|--0--------------|

--0--------------|-----------------|-----------------|-----------------|
--1-----1-------0|-----------------|-----------------|-----------------|
--------0-------0|----------------0|--------0--------|-----------------|
----2-2---2-2-2--|--------4-----4--|------2-------2-4|--4-----0-----0-2|
--3-----3--------|--2-2-2-----2----|--3-------3------|------2-----2----|
----------------0|----------0------|----3-------3----|----0-----0------|

-----------------|-----------------|-----------------|--2-----3--------|
-----------------|-----------------|-----------------|--0--------------|
--------0-------0|--------0-------0|--------0--------|--0-----------<>0|
------2-------2--|------2-------2--|------2----------|--2--------------|
--3-------3------|----2-------2----|--3--------------|--2--------------|
----3-------3----|--0-------0------|----3------------|--0--------------|

-----------------|
-----------------|
-----------------|
-----------------|
-----------------|
-----------------|
Login or Register to remove this ad.

1 comment on Remorse

Alright that tab convinced me

5

Alright that tab convinced me to finally start the first game, sounds too good really.