Around (Hotline Miami 2: Wrong Number) Guitar Tab

Submitted: Aug 28, 2015 by Coolbreeze

5
Average: 5 (3 votes)
Download | Listen
Game: Hotline Miami 2: Wrong Number
Composer(s): Various Composers
Style: Fingerstyle, Transcription

AutoScroll: Slow | Medium | Fast
			      Around
		~Hotline Miami 2 : Wrong Number~

Music by Modulogeek
Tabbed by Coolbreeze
Tempo = 70



      E  E  H           E  E  H           E  E  H           E  E  H           
E||------------------|-----------------|-----------------|------------------||
B||------1--0--------|-----1--0--------|-----1--0--------|-----1--0---------||
G||*-----------------|-----------------|-----------------|-----------------*||
D||*-----------------|-----------------|-----------------|-----------------*||
A||---3--------------|--3--------------|--3--------------|--3---------------||
D||------------------|-----------------|-----------------|------------------||


  E  E  H           E  E  H           E  E  H           E  E  H         
-----------------|-----------------|-----------------|-----------------|
-----1-----------|-----1-----------|-----1-----------|-----1-----------|
--------2--------|--------2--------|--------2--------|--------2--------|
-----------------|-----------------|-----------------|-----------------|
-----------------|-----------------|-----------------|-----------------|
--3--------------|--3--------------|--3--------------|--3--------------|


  E  E  H           E  E  H           E  E  H           H.            
-----------------|-----------------|-----------------|---------------|
-----------------|-----------------|-----------------|---------------|
--------5--------|--------5--------|--------5--------|--L------------|
-----3-----------|-----3-----------|-----3-----------|---------------|
-----------------|-----------------|-----------------|---------------|
--5--------------|--5--------------|--5--------------|---------------|


  E  E  H           E  E  H           E  E  H           E  E  H         
-----------------|-----------------|-----------------|-----------------|
-----1--0--------|-----1--0--------|-----1--0--------|-----1--0--------|
-----------------|-----------------|-----------------|-----------------|
-----------------|-----------------|-----------------|-----------------|
--3--------------|--3--------------|--3--------------|--3--------------|
-----------------|-----------------|-----------------|-----------------|


  E  E  H           E  E  H           E  E  H           E  E  Q    Q     
-----------------|-----------------|-----------------|------------------|
-----1-----------|-----1-----------|-----------------|------------------|
--------2--------|--------2--------|--------5--------|--------5---------|
-----------------|-----------------|-----3-----------|-----3-------5----|
-----------------|-----------------|-----------------|------------------|
--3--------------|--3--------------|--5--------------|--5---------------|


  E  E  H           E  E  Q    Q       E  E  H           H.            
-----------------|------------------|--0--------------|---------------|
--------1--------|--------1----3----|--------1--------|--L------------|
-----------------|------------------|-----2-----------|---------------|
-----2-----------|-----2------------|-----------------|---------------|
--0--------------|--0---------------|-----------------|---------------|
-----------------|-------------5----|--4--------------|---------------|


  E  E  H           E  E  Q    Q       E  E  Q.     E     Q    H         
-----0-----------|-----0------------|--7------------3--|----------------|
--------1--------|------------------|------------------|--3----0--------|
-----------------|--------5---------|-----5--4---------|----------------|
-----------------|-------------7----|------------------|----------------|
-----------------|------------------|--3---------------|----------------|
--3--------------|--5---------------|------------------|----------------|


  E  E  Q.     E     E  E  H           E  E  Q.     E     E  E  H         
--7------------3--|-----------------|--7------------3--|--0--------------|
------------------|--3--------------|------------------|-----1-----------|
-----5--4---------|-----5--4--------|-----5------------|--------2--------|
------------------|-----------------|--------7---------|-----------------|
--3---------------|-----------------|------------------|-----------------|
------------------|-----------------|--3---------------|-----------------|


  E  E  Q.     E     E  E  H           E  E  Q.     E     E  E  H         
--7------------3--|--0--------------|--5---------------|-----------------|
------------------|-----1-----------|---------------5--|--3--------------|
-----5------------|--------2--------|--------5---------|--------5--------|
--------7---------|-----------------|-----3------------|-----5-----------|
--3---------------|-----------------|------------------|-----------------|
------------------|-----------------|------------------|-----------------|


  E  E  Q.     E     E  E  Q    Q       Q    Q.     E     E  E  H         
--5---------------|------------------|--7-----------3--|-----------------|
---------------5--|--3---------------|-----------------|--3--------------|
--------5---------|--------5---------|-------4---------|-----5--4--------|
-----3------------|-----5-------5----|-----------------|-----------------|
------------------|------------------|--3--------------|-----------------|
------------------|------------------|-----------------|-----------------|


  E  E  Q.     E     E  E  H           Q    E  Q    E     E  E  H         
--7------------3--|-----------------|--7------------3--|--0--------------|
------------------|--3--------------|------------------|--------1--------|
-----5--4---------|-----5--4--------|----------5-------|-----2-----------|
------------------|-----------------|-------7----------|-----------------|
--3---------------|-----------------|------------------|-----------------|
------------------|-----------------|--3---------------|-----------------|


                                        ^                                    
  E  E  Q.     E     E  E  Q    Q       E  E  Q.     E     E  E  Q     Q     
--5---------------|------------------|-----0--3------0--|--3--5--8----10----|
---------------5--|--3-----1---------|--1---------------|-------------------|
--------5---------|-----0-------0----|--2---------------|--------5-----7----|
-----3------------|------------------|--2---------------|-------------------|
------------------|------------------|--0---------------|-------------------|
------------------|------------------|--------5---------|-------------------|


   E   E  H           H.               E   E  H            E  E  Q.      E   
--12------8--------|--L------------|--12------8--------|--10-----7------10--|
------10-----------|---------------|------10-----------|------8-------------|
-------------------|---------------|-------------------|--------------------|
-------------------|---------------|-------------------|--------------------|
-------------------|---------------|-------------------|--------------------|
-------------------|---------------|-------------------|--------------------|


  E  E  Q.     E     E  E  Q.        E     Q    Q.     E   
--7------------3--|--0------------9g10--|--7--------------|
------------------|-----1--0------------|--------------8--|
-----5--4---------|---------------------|-----------------|
------------------|---------------------|-------9---------|
--3---------------|---------------------|-----------------|
------------------|---------------------|-----------------|


  E   E  Q.        E     Q    Q.     E     E   E  Q.        E   
----------------9g10--|--7--------------|----------------9g10--|
----------------------|--------------8--|----------------------|
--9-------------------|-----------------|--9-------------------|
-----10--9------------|-------9---------|-----10--9------------|
----------------------|-----------------|----------------------|
----------------------|-----------------|----------------------|


  Q    Q.     E      Q     E  Q.        H.             
--7--------------|--10---------------|---------------||
--------------8--|-------------------|---------------||
-----------------|-------------------|---------------||
-------9---------|--------10--9------|--L------------||
-----------------|-------------------|---------------||
-----------------|-------------------|---------------||
Login or Register to remove this ad.