Ads

Violet Sky (Hotel Dusk: Room 215) Guitar Tab

Submitted: Sep 22, 2010 by Kiku (Last updated: May 03, 2011)

5
Average: 5 (2 votes)
Download | Listen
Game: Hotel Dusk: Room 215
Composer(s): Satoshi Okubo
Style: Transcription

AutoScroll: Slow | Medium | Fast
Violet Sky
Hotel Dusk: Room 215 (Wish Room: Tenshi no Kioku)
Composed by Satoshi Okubo
Tabbed by Kiku
2011-05-03

BPM: 87

                                  Violet Sky                                    


Guitar
     S S S E  S S E  S S E  S E     S S S E  S S E  S S E  S E   
E||------------------------------|------------------------------|
B||--4-----4------4------4-------|--4-----4------4------4-------|
G||----6------6------6------6----|----6------6------6------6----|
D||------6------6------6------6--|------6------6------6------6--|
A||------------------------------|------------------------------|
E||------------------------------|------------------------------|


  S S S E  S S E  S S E  S E     S S S E  S S E  S S E  E  S  
------------------------------|------------------------------|
--4-----4------4------4-------|--4-----4------4------4-------|
----6------6------6------6----|----6------6------6------6----|
------6------6------6------6--|------6------6------6---------|
------------------------------|------------------------------|
------------------------------|------------------------------|


    S S S H        Q    S    S S S H        Q    S    S S S H        Q    S  
|---------0---------------|--------0---------------|--------2---------------|
|-------------------------|------------------------|--0---0-----------------|
|*--2-1-2-----------------|----1-2-----------------|----3-------------------|
|*------------------------|------------------------|------------------------|
|-------------------------|------------------------|------------------------|
|-------------------------|------------------------|------------------------|


  S S S Q.     S E  S E  S    S S S H        Q    S    S S S H        Q    S  
--------2------------------|--0-----0---------------|--------0---------------|
------0----------7----6----|------------------------|------------------------|
----3------------4----3----|----1-2-----------------|----1-2-----------------|
-----------------6----5----|------------------------|------------------------|
---------------------------|------------------------|------------------------|
---------------------------|------------------------|------------------------|


  S S S H        Q    S    H        H           E  S E  E  H        S  
--------2---------------|--0-----------------|--4-------4--0----------|
--0---0-----------------|--0-----------------|-------2----------------|
----3-------------------|--------------------|-----4------------------|
------------------------|--3-----------------|------------------------|
------------------------|--------------------|------------------------|
------------------------|--------------------|------------------------|


  E  S E  E  H        S    E  S E  E.  H           E  S E  E.  H         
--0-------0--2----------|--2-------2---0--------|--0-------0------------|
-------2----------------|-------2------1--------|-------0------3--------|
-----2------------------|-----2--------1--------|-----1--------2--------|
------------------------|-----------------------|--------------4--------|
------------------------|-----------------------|-----------------------|
------------------------|-----------------------|-----------------------|


  E  S E  E  H        S    H.           Q       E  S E  E.  H         
--4-------4--0----------|--2------------0----|--7-------7---5--------|
-------2----------------|--2-----------------|-------7------6--------|
-----3------------------|--0-----------------|-----8--------4--------|
------------------------|--------------------|-----------------------|
------------------------|--------------------|-----------------------|
------------------------|--------------------|-----------------------|


  E  S E  E.  H           E  S S S S S E  S S Q    S  
--5-------5------------|-----------------------------|
-------5------7--------|--5----5---5---8------8------|
-----6--------5--------|--4----4---4---7----7--------|
--------------6--------|--6----6---6---9--9----------|
-----------------------|-----------------------------|
-----------------------|-----------------------------|


   E  S  S S  S S E  S S Q    S    E  S S S S S E  S S Q    S  
--------------------------------|-----------------------------|
--10----10---10---6------6------|--5----5---5---8------8------|
---9-----9----9---5----5--------|--4----4---4---7----7--------|
--11----11---11---7--7----------|--6----6---6---9--9----------|
--------------------------------|-----------------------------|
--------------------------------|-----------------------------|


   E  S  S S  S S E  S S Q    S    E  S S S S S E  S S Q    S  
--------------------------------|-----------------------------|
--10----10---10---6------6------|--5----5---5---8------8------|
---9-----9----9---5----5--------|--4----4---4---7----7--------|
--11----11---11---7--7----------|--6----6---6---9--9----------|
--------------------------------|-----------------------------|
--------------------------------|-----------------------------|


   E  S  S S  S S E  S S Q    S    E  S S S S S E  S S Q    S  
--------------------------------|-----------------------------|
--10----10---10---6------6------|--5----5---5---8------8------|
---9-----9----9---5----5--------|--4----4---4---7----7--------|
--11----11---11---7--7----------|--6----6---6---9--9----------|
--------------------------------|-----------------------------|
--------------------------------|-----------------------------|


   E  S  S S  S S E  S S Q    S    S S S E  S S E  S S E  S E   
--------------------------------|------------------------------|
--10----10---10---6------6------|--4-----4------4------4-------|
---9-----9----9---5----5--------|----6------6------6------6----|
--11----11---11---7--7----------|------6------6------6------6--|
--------------------------------|------------------------------|
--------------------------------|------------------------------|


  S S S E  S S E  S S E  S E     S S S E  S S E  S S E  S E   
------------------------------|------------------------------|
--4-----4------4------4-------|--4-----4------4------4-------|
----6------6------6------6----|----6------6------6------6----|
------6------6------6------6--|------6------6------6------6--|
------------------------------|------------------------------|
------------------------------|------------------------------|


  S S S E  S S E  S S E  E  S    
-------------------------------||
--4-----4------4------4--------||
----6------6------6------6----*||
------6------6------6---------*||
-------------------------------||
-------------------------------||




Duration Legend
---------------
W - whole
H - half
Q - quarter
E - 8th
S - 16th
T - 32nd
X - 64th
. - note dotted
|-n-|  - n-tuplets


Tablature Legend
----------------
L - tied note
x - dead note
g - grace note
(n) - ghost note
> - accentuded note
NH - natural harmonic
AH - artificial harmonic
TH - tapped harmonic
SH - semi harmonic
PH - pitch harmonic
h - hammer on
p - pull off
b - bend
br - bendRelease
pb - preBend
pbr - preBendRelease
brb - bendReleaseBend
\n/ - tremolo bar dip
\n - tremolo bar dive
-/n - tremolo bar Release up
/n\ - tremolo bar inverted dip
/n - tremolo bar return
-\n - tremolo bar Release down
S - shift slide
s - legato slide
/ -  slide into from below or out of upwards
\ -  slide into from above or out of downwards
~ - vibrato
W - wide vibrato
tr - trill
TP - tremolo picking
T - tapping
S - slap
P - pop
< - fade in
^ - brush up
v - brush down
Login or Register to remove this ad.

4 comments on Violet Sky

epic

5

epic

Do a cover!

Do a cover!

Thank you !

A perfect tab for a perfect track :D

No problem

Thanks for commenting, glad you liked it. I updated the tab, try playing the new version.