Ads

Fugainaiya (Honey and Clover II) Guitar Tab

Submitted: May 03, 2014 by Tracedawn

5
Average: 5 (2 votes)
Download | Listen
Game: Honey and Clover II
Composer(s): Yuzo Hayashi
Style: Arrangement, Fingerstyle

AutoScroll: Slow | Medium | Fast
"Fugainaiya" by YUKI
Opening Theme from "Honey and Clover II"
Tabbed by: Primoelodies / Tracedawn
Date: May 2, 2014

Guitar
Standard Tuning

     E  E  Q    E  E  E  E     E  Q    Q    Q    E     E  E  Q    E  E  E  E     E  E  Q    E  E  E  E   
E||----------------------0--|--0--------------------|-------------------------|-----0-------------------|
B||--------2----2--0--------|-----2----0----0-------|--2--2--2----2--0-----2--|--L----------------------|
G||--------2----2-----2-----|--------------------2--|--2-----2----2-----2-----|-------------2--2--2--2--|
D||--0--0--0----0-----0-----|-----------------------|--0-----0----0-----------|-------------2--2--2--2--|
A||-------------------------|-----------------------|-------------------------|--------0----------------|
E||-------------------------|-----------------------|-------------------------|-------------------------|


  E  E  E  E  E  E  E  E     E  E  E  E  E  E  E  E     E  E  E  E  E  E  E  E     E  E  E  Q    E  E  E   
-----------------------0--|--L-----------------------|--------------------------|-------------------------|
--------2--2--2--0--------|-----2-----0-----0--0-----|--------------0-----------|-------------------------|
--------2-----2-----2-----|-----2-----2-----2--2--2--|--L--2-----2--2--2--1--2--|--L--2--2--2----2--2--2--|
--0--0--0-----0-----0-----|--------------------------|--0-----0-----0--------2--|--L--2--2--2----2--2--2--|
--------------------------|--0-----0-----0-----------|-----------------------0--|--L--0--0--0----0--0--0--|
--------------------------|--------------------------|--------------------------|-------------------------|


                                                                                            S   S   S   
  E  E  E  E  E  E  E  E     E  Q    Q    Q    E     E  E  E  E  E  E  E  E     E  E  E  E  E.  E.  E   
-----------------------0--|--L--------------------|--------------------------|-----0--------5---5---5--|
--------2--2--2--0--------|-----2----0----0-------|--2--2--2--2--2--0-----2--|--L-----------5---5---5--|
--------2--2--2--2--2-----|-----2----2----2----2--|--2--2--2--2--2--2--2-----|--------2-----2---2---2--|
--0--0--0-----0-----0-----|-----------------------|--0-----0-----0-----0-----|--------2----------------|
--------------------------|--0--0----0----0-------|--------------------------|--0-----0-----0---0---0--|
--------------------------|-----------------------|--------------------------|-------------------------|


  E  E  Q    E  E  E  E     E  Q    Q    Q    E     E  Q    E  E  E  E  E     Q    E  E  E  Q    E   
----------------------0--|--L--------------------|-------------------------|--2----2--2--2--4----5--|
--------2----2--0--------|-----2----0----0-------|-------------0-----------|--3----------3-------2--|
--------2----2--2--2-----|----------2----2----2--|--2--2----2-----2-----2--|--2----------2-------2--|
--0--0--0----0-----0-----|----------2----2-------|--0-------0-----0--------|--0----------0-------2--|
-------------------------|--0-------0----0-------|-------------------------|------------------------|
-------------------------|-----------------------|-------------------------|------------------------|


  E  Q    Q    Q    E     E  E  E  E  E  E  E  E     E  Q.     Q    Q       Q    E  E  Q    E  E   
--L--------------------|--------------0-----------|-----2----------------|--2----2--2--2----4--5--|
--L--5----3----2----2--|--2--2--2--2--2--3--2--2--|--L--2----------------|--3----------3-------2--|
--L-------2------------|--1-----------1-----------|-----2------0----2----|--2----------2-------2--|
--L-------2------------|--2-----------2-----------|-----2------2---------|--0------------------2--|
-----------------------|--------------------------|------------2---------|------------------------|
-----------------------|--------------------------|----------------------|------------------------|


  E  Q    E   Q     E  E     Q    E  Q.     E  E     E  Q.     Q    Q       E  E  E  E  E  E  E  E   
--L-------0---9----10--9--|--L----7--5------7--7--|--L--5----------------|-----------------------0--|
--L--5-------10--------9--|--L-------5---------7--|--L--7----------------|--------2-----2--0--------|
--L-----------9--------9--|--L-----------------6--|--L--6----------------|--------------------2-----|
--------------------------|-----------------------|------------7---------|--0--0-----0--------------|
--------------------------|-----------------------|-----------------9----|--------------------------|
--------------------------|-----------------------|-----------------9----|--------------------------|


  E  E  E  E  E  E  E  E     E  E  E  E  E  E  E  E     E  E  E  E  E  E  E  E     E  E  E  E  E  E  E  E   
--L-----------------------|--------------------------|-----0--------------------|-----------------------0--|
-----2-----0-----0--0-----|-----2--2-----2--0-----2--|--L-----------------------|--------2--2--2--0--------|
-----------------------2--|--L-----------------2-----|--------2--------2-----2--|--------2--2--2--2--2-----|
--------------2-----------|--0--------0--------------|-----------2--------2-----|--0--0--0-----0-----0-----|
--0-----0-----------------|--------------------------|--0-----------0-----------|--------------------------|
--------------------------|--------------------------|--------------------------|--------------------------|


  E  E  E  E  E  E  E  E     E  E  E  E  E  E  E  E     E  E  E  Q    E  E  E     Q    E  E  E  E  E  E   
--L-----------------------|--------------------------|-------------------------|--2----2--2--2--4--5--5--|
-----2-----0-----0--------|--------------0-----------|-------------------------|--3----------3--------2--|
-----2-----2-----2-----2--|--L--2--2--2--2--2--1--2--|--L--1----------------2--|--2----------2--------2--|
--------------------------|--0--0--0--0--0--0--0--0--|--L-----4--2----0--------|--0-------------------2--|
--0-----0-----0-----0-----|--------------------------|-------------------4-----|-------------------------|
--------------------------|--------------------------|-------------------------|-------------------------|


  E  Q    Q    Q    E     E  E  Q    E  E  E  E     E  Q.     Q    Q       Q.     E  E  Q    E   
--L--------------------|-------------0-----------|-----2----------------|--2------2--2--4----5--|
--L--5----3----2----2--|--2--2--2----2--3--2--2--|--L--2----------------|--3---------3-------2--|
--L-------2------------|--1-----1----1-----------|-----2------0----2----|--2---------2-------2--|
--L--------------------|--2-----2----2-----------|------------2---------|--0-----------------2--|
-----------------------|-------------------------|------------2---------|-----------------------|
-----------------------|-------------------------|----------------------|-----------------------|


  E  Q    E   Q     E  E     Q    E  Q.     E  E     E  Q.     Q    Q       Q    E  E  E  Q    E   
--L-------0---9----10--9--|--L----7--5------7--7--|--L--5----------------|--2----2--2--2--4----5--|
--L--5-------10--------9--|--L-------5---------7--|--L--7----------------|--3----------3-------2--|
--L-----------9--------9--|--L-----------------6--|--L--6------0----2----|--2----------2-------2--|
--------------------------|-----------------------|------------2---------|--0------------------2--|
--------------------------|-----------------------|------------2---------|------------------------|
--------------------------|-----------------------|----------------------|------------------------|


  E  Q    Q    E  E  E     E  E  E  E  E  E  E  E     E  Q.     E  E  Q       Q    E  E  E  Q    E   
--L---------------------|--------------0-----------|-----2-----------------|--2----2--2--2--4----5--|
--L--5----3----2--2--2--|--2--2--2--2--2--3--2--2--|--L--2-----------------|--3----------3-------2--|
--L-------2-------------|--1-----1-----1-----------|-----2---------0--2----|--2----------2-------2--|
----------2-------------|--2-----2-----2-----------|---------------2--2----|--0------------------2--|
------------------------|--------------------------|------------2----------|------------------------|
------------------------|--------------------------|-----------------------|------------------------|


  E  Q    E   Q     E  E     Q    E  Q.     E  E     E  Q    E  Q     E  E     Q    E  Q.     E  E   
--L-------0---9----10--9--|--L----7--5------7--7--|--L--5----0--9----10--9--|--L----7--5------7--7--|
--L--5-------10--------9--|--L-------5---------7--|--L--7-------8--------7--|--L-------7---------5--|
--L-----------9--------9--|--L-----------------6--|--L--6-------9--------7--|--L-------7---------6--|
--------------------------|-----------------------|-------------------------|-----------------------|
--------------------------|-----------------------|-------------------------|-----------------------|
--------------------------|-----------------------|-------------------------|-----------------------|


  E  Q    E   Q     E  E     Q    E  Q.     E  E     H        H           E  E  E  E  E  E  E  E   
--L--5----0---9----10--9--|--L----7--5------7--5--|--L--------7--------|--9-----------------------|
--L--5-------10--------9--|--L-------5---------7--|--L--------8--------|--7--7--7--7--7--7--7--7--|
--L--6--------9--------9--|--L-----------------6--|--L--------9--------|--7--7--7--7--7--7--7--7--|
--------------------------|-----------------------|--------------------|-----7--7--7--7--7--7--7--|
--------------------------|-----------------------|--------------------|--------------------------|
--------------------------|-----------------------|--------------------|--------------------------|


  E  E  E  E  E  E  E  E     E  E  E  E  E  E  E  E     W                                      
--------------------------|--7--7--7--7--7--7--7--7--|-------------------|-------------------||
--9--9--9--9--9--9--9--9--|--7--7--7--7--7--7--7--7--|-------------------|-------------------||
--9--9--9--9--9--9--9--9--|--9--9--9--9--9--9--9--9--|-------------------|-------------------||
--7--7--7--7--7--7--7--7--|--------------------------|-------------------|-------------------||
--------------------------|--------------------------|-------------------|-------------------||
--------------------------|--------------------------|-------------------|-------------------||




Duration Legend
---------------
W - whole
H - half
Q - quarter
E - 8th
S - 16th
T - 32nd
X - 64th
. - note dotted
|-n-|  - n-tuplets


Tablature Legend
----------------
L - tied note
x - dead note
g - grace note
(n) - ghost note
> - accentuded note
NH - natural harmonic
AH - artificial harmonic
TH - tapped harmonic
SH - semi harmonic
PH - pitch harmonic
h - hammer on
p - pull off
b - bend
br - bendRelease
pb - preBend
pbr - preBendRelease
brb - bendReleaseBend
\n/ - tremolo bar dip
\n - tremolo bar dive
-/n - tremolo bar Release up
/n\ - tremolo bar inverted dip
/n - tremolo bar return
-\n - tremolo bar Release down
S - shift slide
s - legato slide
/ -  slide into from below or out of upwards
\ -  slide into from above or out of downwards
~ - vibrato
W - wide vibrato
tr - trill
TP - tremolo picking
T - tapping
S - slap
P - pop
< - fade in
^ - brush up
v - brush down
Login or Register to remove this ad.