Ads

Sunslammer (Homestuck) Guitar Tab

Submitted: Sep 24, 2016 by

0
Download | Listen
Game: Homestuck
Composer(s): Various Composers
Style: Transcription

AutoScroll: Slow | Medium | Fast
Sunslammer
Homestuck
Tabbed by Ghost Slime
"Sunsetter" Composed by Toby Radiation Fox
Arranged by Seth "Beatfox" Peelle


(Part-A 1)
|--------3---------------|--------3----------------|--------3---------6---|--4/6---4--3--1---1--3--4--|
|--1--1-----4--4/6---4---|-----------4---4/6---4---|-----------4--6-------|---------------------------|
|------------------------|--2--2-------------------|--1--1----------------|---------------------------| x2
|------------------------|-------------------------|----------------------|---------------------------|
|------------------------|-------------------------|----------------------|---------------------------|
|------------------------|-------------------------|----------------------|---------------------------|


(Part-B-1)
|--6------6--8--6------6--8--6--|--------------3--3--4--4--|--6------6--8--6------11--10--11----6-\4--3----6/8-|
|-------------------------------|--4--4--6--6--------------|---------------------------------------------------|
|-------------------------------|--------------------------|---------------------------------------------------|
|-------------------------------|--------------------------|---------------------------------------------------|
|-------------------------------|--------------------------|---------------------------------------------------|
|-------------------------------|--------------------------|---------------------------------------------------|

|--6------6--8--6------6--8--6--|------------------------------1--3--|-------------------------------|
|-------------------------------|--4--------3--4------1--3--4--------|------4----3----4----4/6----4--|
|-------------------------------|------------------------------------|--3h5--------------------------|
|-------------------------------|------------------------------------|-------------------------------|
|-------------------------------|------------------------------------|-------------------------------|
|-------------------------------|------------------------------------|-------------------------------|


(Part-A 2)
|--------3---------------|--------3----------------|--------3---------4/6-|--6---4--3h4p3-------------|
|--1--1-----4--4/6---4---|-----------4---4/6---4---|-----------4--6-------|---------------6---6p4p3---|
|------------------------|--2--2-------------------|--1--1----------------|-------------------------3-|
|------------------------|-------------------------|----------------------|---------------------------|
|------------------------|-------------------------|----------------------|---------------------------|
|------------------------|-------------------------|----------------------|---------------------------|

|--------3---------------|--------3----------------|--------3---------6---|--4/6---4--3--1---1--3--4--|
|--1--1-----4--4/6---4---|-----------4---4/6---4---|-----------4--6-------|---------------------------|
|------------------------|--2--2-------------------|--1--1----------------|---------------------------|
|------------------------|-------------------------|----------------------|---------------------------|
|------------------------|-------------------------|----------------------|---------------------------|
|------------------------|-------------------------|----------------------|---------------------------|


(Part-B-2)
|--6------6--8--6------6--8--6--|--------------3--3--4--4--|--6------6--8--6------11--10--11----6--4--3--------|
|-------------------------------|--4--4--6--6--------------|---------------------------------------------------|
|-------------------------------|--------------------------|-----------------------------------------------3h5-|
|-------------------------------|--------------------------|---------------------------------------------------|
|-------------------------------|--------------------------|---------------------------------------------------|
|-------------------------------|--------------------------|---------------------------------------------------|

|--6------6--8--6------6--8--6--|----------------------------------------1--3--|-------------------------------|
|-------------------------------|--4---15b16-15b16-15b16r-------1--3--4--------|------4----3----4----4/6----4--|
|-------------------------------|----------------------------------------------|--3h5--------------------------|
|-------------------------------|----------------------------------------------|-------------------------------|
|-------------------------------|----------------------------------------------|-------------------------------|
|-------------------------------|----------------------------------------------|-------------------------------|


(Part-A 3)
|--------3---------6---|--6~~~--|
|--1--1-----4--6-------|--------|
|----------------------|--------|
|----------------------|--------|
|----------------------|--------|
|----------------------|--------|


(Part-A 1)
|--------3---------------|--------3----------------|--------3---------6---|--4/6---4--3--1---1--3--4--|
|--1--1-----4--4/6---4---|-----------4---4/6---4---|-----------4--6-------|---------------------------|
|------------------------|--2--2-------------------|--1--1----------------|---------------------------| x2
|------------------------|-------------------------|----------------------|---------------------------|
|------------------------|-------------------------|----------------------|---------------------------|
|------------------------|-------------------------|----------------------|---------------------------|


(Part-C)
|--15-18-18-18--16--15--15--|--13-15-16-15-13-11-11h13-|-11-10-11--10-------------------|
|---------------------------|--------------------------|--------------11--------11------|
|---------------------------|--------------------------|-----------------10--12-----12--|
|---------------------------|--------------------------|--------------------------------|
|---------------------------|--------------------------|--------------------------------|
|---------------------------|--------------------------|--------------------------------|

|------------------------15--|--15-16-15-18-----------|--15-16-15-18-----------------------------|
|--15h16--15------16/18------|--------------16-15-16--|--------------16-15-16--18----------------|
|-------------15-------------|------------------------|----------------------------17h19--17-15--|
|----------------------------|------------------------|------------------------------------------|
|----------------------------|------------------------|------------------------------------------|
|----------------------------|------------------------|------------------------------------------|

|-------------------------------------------------|--15------16h18----16--------------13h15--|
|---------14h16--14---------------------13h14p13--|------13-------------------15--16---------|
|-----15-------------13----------13/15------------|-----------------------17-----------------|
|--17--------------------15-----------------------|------------------------------------------|
|----------------------------16-------------------|------------------------------------------|
|-------------------------------------------------|------------------------------------------|

|--13-15---------------------------------|--15-18--23-22----------------------15----------18--20-15-----------------|
|--------14h15-13-------11h13--15p13p11--|---------------23-20-18-16-15----------18-19-20-----------18-16----16h18--|
|-----------------15-12------------------|------------------------------17-16-----------------------------17--------|*
|----------------------------------------|--------------------------------------------------------------------------|
|----------------------------------------|--------------------------------------------------------------------------|
|----------------------------------------|--------------------------------------------------------------------------|

|--------------18-------|--------15------15h16p15--------------------|
|--13-15-16--------16\--|--16-18------------------18---16---15---16--|
|-----------------------|--------------------------------------------|
|-----------------------|--------------------------------------------|
|-----------------------|--------------------------------------------|
|-----------------------|--------------------------------------------|

|--15-16-18----------16---18---20---18--|------16--18--23----22----23----25----23--|
|----------------16---------------------|--16--------------------------------------|
|---------------------------------------|------------------------------------------|
|---------------------------------------|------------------------------------------|
|---------------------------------------|------------------------------------------|
|---------------------------------------|------------------------------------------|


* Alternate version of this bar one octave down
|---------11-10---------------------------------------------------------|
|-----11--------11------------------------------11--13----10-8----8h10--|
|--12--------------12-10------------12-10-11-12--------12------10-------|
|------------------------13-12-10-9-------------------------------------|
|-----------------------------------------------------------------------|
|-----------------------------------------------------------------------|
Login or Register to remove this ad.

1 comment on Sunslammer

Breaking the rules a bit to

Breaking the rules a bit to let Homestuck on the site. It's not a game or anime, but Toby Fox composed some music, including the original version of this song.