Ads

Showtime (Haunting Guitar Refrain) (Homestuck) Guitar Tab

Submitted: Feb 19, 2017 by johnbie (Last updated: Mar 09, 2017)

0
Download | Listen
Game: Homestuck
Composer(s): Various Composers
Style: Arrangement, Fingerstyle

AutoScroll: Slow | Medium | Fast
Showtime (Haunting Piano Refrain)
Homestuck
Song by Malcolm Brown
Arranged By John Lee
Dropped D Tuning
Capo 1



     Q    Q    E  E     Q    Q    E  E     Q    Q    Q       Q    Q    Q       Q    Q    E  E   
E||------------------|--0------------0--|--2---------3----|--5---------2----|--3------------0--|
B||--3---------2--3--|------------3-----|-------3----3----|------------0----|------------0-----|
G||-------4----------|-------2----------|-------2----2----|-----------------|------------------|
D||-------4----------|-------2----------|--0--------------|-------0---------|-------2----------|
A||--2---------------|--0---------------|-----------------|-------0---------|-------2----------|
D||------------------|------------------|-----------------|--0--------------|--2---------------|


  Q    Q    E  E     Q    Q    E  E     Q    E  E  Q       Q    Q    E  E     Q    Q    E  E   
--2---------------|--0------------0--|--2----------0----|------------------|--0------------0--|
-------3-------3--|------------2-----|-------2--3--2----|--3---------2--3--|------------3-----|
-------2----2-----|-------2----2-----|--3---------------|-------4----------|-------2----------|
--0---------------|-------2----2-----|--4----------2----|-------4----------|-------2----------|
------------------|--0---------------|------------------|--2---------------|--0---------------|
------------------|------------------|------------------|------------------|------------------|


  Q    E  E  E  E     Q    E  E  Q       Q    Q    E  E     Q    Q    E  E     Q    Q    E  E   
--2----------2--3--|--5---------------|--3----0-------0--|--2---------0-----|------------------|
-------------3-----|-------------3----|------------0-----|-------2-------2--|------------3--2--|
----------2--2-----|----------2--2----|-------0----------|-------3----------|--4---------------|
-------0-----------|-------0-----0----|--2---------------|-------4----------|-------4----------|
-------0-----------|-------0----------|-------2----------|--1---------------|--2---------------|
--0----------------|--0---------------|------------------|------------------|------------------|


  H        E  E     E  E  E  E  E  E     E  E  E  E  E  E     E  E  E  E  E  E   
-----------------|--------------------|--0--------------0--|--2-----------5--3--|
-----------0--2--|--3--------------3--|--------------2-----|--3-----3-----------|
--4--------------|--4-----4-----4-----|--2-----2-----------|-----2-----2--------|
--4--------------|-----4-----4--------|-----2-----2--------|--0-----------------|
--2--------------|--2-----------------|--0-----------------|--------------------|
-----------4-----|--------------------|--------------------|--------------------|


  E  E  E  E  Q       E  E  E  E  E  E     E  E  E  E  E  E     E  E  E  E  E  E   
--2-----------2----|--3-----0--3-----0--|--2--------2--------|--0--------0--5--3--|
--------------3----|-----0--------0-----|--------3--------3--|--------2-----------|
-----------2--2----|--------------------|-----2--------2-----|-----2--------------|
--------0----------|--------2-----------|--------0-----------|--------------------|
-----0-------------|-----2--------------|-----0--------------|--0-----0-----------|
--0----------------|--2-----------------|--0-----------------|-----2--------------|


  Q    E  E  Q       E  E  E  E  E  E     E  E  E  E  E  E     E  E  E  E  E  E   
--2----------0----|--------------------|--0--------------0--|--2-----------2--3--|
-------------2----|--3-----------0--3--|--------------2-----|--------3-----------|
--2---------------|--------4-----------|--------2-----------|-----2-----2--------|
----------2--4----|-----4-----4--------|-----2-----2--------|--0-----------------|
-------4----------|--2-----------------|--0-----------------|--------------------|
--4---------------|--------------------|--------------------|--------------------|


  E  E  Q    Q       E  E  E  E  E  E     E  E  E  E  E  E     E  E  E  E  E  E     H.            
--2---------------|--3-----0--3-----0--|--2--------2--------|-----------2--------|---------------|
-------------3----|-----0--------0-----|--------2--------2--|--------3-----5--2--|---------------|
-------------2----|--------------------|-----3--------3-----|--4-----------------|--4------------|
--------0---------|--------2-----------|--------------------|-----4--------------|---------------|
-----0------------|-----2--------------|--4-----4-----------|--2-----2-----------|--2------------|
--0---------------|--2-----------------|--------------------|--------------------|---------------|


-------||
-------||
-------||
-------||
-------||
-------||




Duration Legend
---------------
W - whole
H - half
Q - quarter
E - 8th
. - note dotted
|-n-|  - n-tuplets
Login or Register to remove this ad.