Ads

Darling Kanaya (Homestuck) Guitar Tab

Submitted: Dec 29, 2016 by johnbie (Last updated: Jan 23, 2017)

5
Average: 5 (1 vote)
Download | Listen
Game: Homestuck
Composer(s): Various Composers
Style: Arrangement, Fingerstyle

Click here for a video example.

AutoScroll: Slow | Medium | Fast
Darling Kanaya                                                                
Homestuck
Song By Toby Fox
Arranged By John Lee
Dropped-D Tuning


     H        E  E       Q    Q    Q       Q    Q    Q       Q    E  E  E  E     E  E  Q    Q       Q    Q    Q       Q    Q    E  E   
E||-----------0--1--||---0--------------|-----------------|----------0-----0--|-----0-------3----|-----------------|------------------|
B||-----------------||------------------|--1--------------|-------6-----------|--6-----6---------|--3--------------|--0---------------|
G||-----------------||*------------2----|-----------------|-------------------|------------------|------------2----|------------0--2--|
D||-----------------||*-----------------|--2--------------|--0----------------|------------------|-----------------|--0---------------|
A||-----------------||-------------0----|-------3----0----|-------2-----------|--3-----2----3----|------------0----|-------2----------|
D||-----------------||---3----5---------|-----------------|-------------5-----|------------------|--3----5---------|------------5-----|


  Q    Q    Q       Q    Q    E  E     Q    Q    Q       Q    Q    E  E     Q    Q    Q       Q    Q    E  E     Q    Q    Q     
-----------------|------------------|-----------------|------------------|-----------------|------------------|------------0----|
--0--------------|---------------0--|--1--------------|---------------0--|--1--------------|--1----0----------|-----------------|
-----------------|------------2-----|-----------------|--2---------2-----|-----------------|------------3--2--|--1--------------|
-----------------|------------------|------------3----|------------------|-----------------|------------------|--2----0---------|
------------0----|--3----2----3-----|------------0----|--3----2----3-----|-------0---------|--0----2----3-----|------------2----|
--2----5---------|------------------|--0----3---------|------------------|--0---------3----|------------------|-----------------|


  Q    Q    Q       Q    Q    Q       Q    Q    Q         Q    Q    Q       Q    E  E  Q       Q    E  E  E  E     E  E  E  E  Q     
------------0----|-----------------|------------------||--0--------------|--L---------------|----------0-----0--|-------------------|
-----------------|------------3----|------------3-----||-----------------|------------------|-------------6-----|--0-----0-----3----|
-----------------|--0--------------|--0----3---------*||-----------------|------------------|-------------------|-----5-----5-------|
--6--------------|--0--------------|-----------------*||--2--------------|--L---------------|--0----------------|-------------------|
-----------------|-------3----2----|--0---------0-----||------------0----|-------3-----0----|-------2-----------|--3-----2-----3----|
--6----3----2----|-----------------|-------3----------||--3----5---------|--0---------------|-------------5-----|-------------------|


  Q    Q    Q       Q    E  E  E  E     Q    Q    Q       Q    Q    E  E     Q    Q    Q       Q    E  E  E  E     Q    Q    Q     
--3----3---------|-------------------|-----------------|------------------|-----------------|-------------1--3--|-----------------|
-----------------|--3----------0-----|-----------------|------------------|-----------------|-------------------|--3--------------|
-----------------|----------5--------|--0--------------|------------------|--0---------0----|--2-------0--------|-----------------|
-----------------|--0-------------7--|-----------------|------------2--3--|-------3---------|-------------------|-----------------|
------------0----|-------2-----------|------------0----|--3----2----3-----|------------0----|--3----2-----3-----|-------0---------|
--3----5---------|-------------5-----|--2----5---------|------------------|--0----3---------|-------------------|--0---------3----|


  Q    Q    E  E     Q    Q    Q       Q    Q    Q       Q    Q    Q       Q    Q    Q       Q    Q    Q       Q    Q    Q     
------------------|-----------------|-----------------|-----------------|------------3----|--0--------------|-----------------|
--3----1----0-----|-------0---------|--0---------3----|--1----0----1----|--3----0---------|-----------------|-----------------|
---------------2--|--1---------1----|-------1---------|-----------------|-----------------|-----------------|-----------------|
------------------|--2----0---------|-----------------|--0--------------|-----------------|-----------------|--2--------------|
--0----2----3-----|------------2----|-----------------|-------3----2----|--0---------0----|------------0----|-------3----0----|
------------------|-----------------|--6----3----2----|-----------------|-------3---------|--3----5---------|-----------------|


  Q    E  E  E  E     E  E  E  E  Q       Q    Q    Q       Q    E  E  Q       Q    Q    Q       Q    Q    E  E     Q    Q    Q     
----------0-----0--|-------------------|--3----3---------|--5-------7--5----|--3--------------|------------------|-----------------|
-------------6-----|--0-----0-----3----|-----------------|------------------|-----------------|------------------|-----------------|
-------------------|-----5-----5-------|-----------------|------------------|-----------------|------------------|--0---------0----|
--0----------------|-------------------|-----------------|--0---------------|-----------------|------------2--3--|-------3---------|
-------2-----------|--3-----2-----3----|------------0----|-------2----------|------------0----|--3----2----3-----|------------0----|
-------------5-----|-------------------|--3----5---------|-------------5----|--2----5---------|------------------|--0----3---------|


  Q    E  E  E  E     Q    Q    Q       Q    E  E  E  E     Q    Q    Q       Q    Q    Q       Q    Q    Q       Q    E  E  E  E   
-------------------|-----------------|-------------------|-----------------|-----------------|-----------------|-------------------|
----------------0--|--1----0----1----|--3-------1--0-----|-------0---------|--0---------3----|--1----0----1----|--3-------0--1--3--|
--2-------0--2-----|-----------------|----------------2--|--1---------1----|-------1---------|-----------------|-------------------|
-------------------|-----------------|-------------------|--2----0---------|-----------------|--0--------------|-------------------|
--3----2-----3-----|-------0---------|--0----2-----3-----|------------2----|-----------------|-------3----2----|--0----------0-----|
-------------------|--0---------3----|-------------------|-----------------|--6----3----2----|-----------------|-------3-----------|


  Q.     E  E  E     E  Q    Q       Q.     E  E  E     E  Q    Q       Q.     E  E  E     E  Q    Q       Q.     E  E  E   
--0------1--0-----|---------------|---------1--0-----|---------------|---------1--------|---------------|------------------|
---------------3--|---------------|---------------3--|---------------|------------3--1--|---------------|---------3--1--0--|
------------------|--2------------|------------------|--2------------|------------------|--2------------|------------------|
------------------|-----3----L----|--L---------------|-----3----L----|--L---------------|-----2----L----|--L---------------|
--L---------------|---------------|------------------|---------------|------------------|---------------|------------------|
------------------|---------------|------------------|---------------|------------------|---------------|------------------|


  Q    Q    Q       Q.     E  E  E     E  Q    Q       Q.     E  E  E     E  Q    Q       Q.     E  E  E     E  E  Q    Q     
-----------------|---------1--0-----|---------------|------------------|---------------|------------------|------------------|
-----------------|---------------3--|---------------|---------3--1--0--|---------------|---------1--0-----|------------------|
--2----0---------|------------------|--2------------|------------------|--2------------|---------------2--|------------------|
------------2----|--L---------------|-----3----L----|--L---------------|-----2----L----|--L---------------|--3--2--0----L----|
-----------------|------------------|---------------|------------------|---------------|------------------|------------------|
-----------------|------------------|---------------|------------------|---------------|------------------|------------------|


  Q.     E  E  E     E  E  E  E  E  E      H         Q       H.              Q     E   E  E   E      E   E   Q     Q     
------------------|--------------------|--12--------------|--8------------|-------13--12-----12--|--13--12--13----15----|
---------1--0-----|--------------------|------------10----|---------------|----------------------|----------------------|
---------------2--|--------------------|------------------|---------------|----------------------|----------------------|
--L---------------|--3--2--0-----------|------------------|---------------|----------------------|----------------------|
------------------|-----------3--2--0--|------------------|---------------|----------------------|----------------------|
------------------|--------------------|------------------|---------------|----------------------|----------------------|


   Q     Q     Q        Q.     E  E  E     H.              Q.     E  E  E      H         Q        Q.     E  E  E     H.            
--------------------|-------------------|--7------------|---------------8--|---9--------------|-------------6--8--|--9------------|
--------15----------|--12---------8-10--|---------------|-----------11-----|------------------|--11---------------|---------------|
--------------14----|-------------------|--9------------|--L---------------|------------11----|-------------------|---------------|
--12----------------|---L---------------|---------------|------------------|--11--------------|---L---------------|---------------|
--------------------|-------------------|--7------------|--L---------------|------------------|-------------------|--7------------|
--12----------------|---L---------------|---------------|------------------|--11--------------|---L---------------|---------------|


  Q    E  E  E  E     H         Q       Q.     E   Q       H         Q       Q    E  E   Q        H.               H.            
--9----8-----7--6--|-----------12----|------------12----|-----------10----|-------6-----10----|--11------------|---L------------|
-------------------|--9--------------|--9---------------|--7--------------|--8----------------|----------------|----------------|
-------------------|-----------------|------------------|-----------------|-------------------|----------------|----------------|
-------------------|-----------------|------------------|-----------------|-------------------|----------------|----------------|
--L----------------|-----------------|------------------|--6--------------|--L----------------|----------------|----------------|
-------------------|--9--------------|--L---------------|-----------------|-------------------|----------------|----------------|


  Q    Q    Q       Q    Q    Q       Q    E  E  E  E     Q    Q    Q       Q    E  E  Q       Q    Q    Q       Q    E  E  E  E   
-----------------|-----------------|-------------------|-----------------|------------------|-----------------|-------------------|
-----------------|--4--------------|-------4--2--1--2--|--6--------------|--L---------------|--4--------------|--L----------------|
-----------------|--1--------------|-------------------|-----------------|------------------|--3----1----0----|--1----0-----------|
-------4----3----|-------4----3----|--4----3-----------|-----------------|--6----4-----3----|-----------------|-------------1--3--|
--4--------------|-----------------|-------------4-----|-------3----6----|------------------|-----------------|-------------------|
-----------------|-----------------|-------------------|--6--------------|------------------|-----------------|-------------------|


  H.              Q.     Q.               
---------------|----------------|-------||
--3------------|--L-------------|-------||
---------------|----------------|-------||
--0------------|--L-------------|-------||
---------------|----------------|-------||
---------------|----------------|-------||




Duration Legend
---------------
W - whole
H - half
Q - quarter
E - 8th
S - 16th
. - note dotted
Login or Register to remove this ad.