Login or Register to remove this ad.

Clockwork Sorrow (Homestuck) Guitar Tab

Submitted: Jul 17, 2017 by johnbie

0
Download | No audio :(
Game: Homestuck
Composer(s): Various Composers
Style: Arrangement, Fingerstyle

Click here for a video example.

AutoScroll: Slow | Medium | Fast
Clockwork Sorrow
Homestuck Vol. 5
Remix by David Ko
Arranged by John Lee
Capo 1



     Q    Q    Q       Q    Q    Q       H.              H        Q       Q    Q    Q     
E||-----------------|-----------------|---------------|----------------|-----------------|
B||--0----2----3----|--0---------0----|---------------|----------------|--0----2----3----|
G||-----------------|-----------------|--2------------|--L-------------|-----------------|
D||-----------------|-------4---------|---------------|-----------4----|-----------------|
A||--2--------------|--L--------------|---------------|----------------|--2--------------|
E||-----------------|-----------------|--2------------|--L-------------|--3--------------|


  Q    Q    Q       H        Q       H        Q       Q    Q    Q       Q    Q    Q     
-----------------|----------------|----------------|-----------------|-----------------|
--3----2----3----|--2--------0----|----------------|--0--------------|--0--------------|
-----------------|----------------|--3-------------|-------0---------|-------2----0----|
-----------------|----------------|-----------4----|--0---------0----|-----------------|
--L--------------|--1-------------|--L-------------|--2--------------|--L--------------|
--L--------------|----------------|----------------|-----------------|-----------------|


  H.              H        Q       Q    Q    Q       Q    Q    Q       Q    Q    Q     
---------------|----------------|-----------------|-----------------|--2--------------|
---------------|----------------|-----------------|-----------------|-------3----2----|
---------------|----------------|-----------------|--3--------------|-----------------|
--4------------|--L-------------|--4----0---------|-------4---------|-----------------|
--0------------|-----------4----|------------4----|------------4----|--2--------------|
---------------|----------------|--2--------------|--L--------------|--2--------------|


  H.                Q    Q    Q       Q    Q    Q       H.              H        Q     
----------------||-----------------|-----------------|---------------|----------------|
--0-------------||--0----2----3----|--0---------0----|---------------|----------------|
---------------*||-----------------|-----------------|--2------------|----------------|
---------------*||--0--------------|--0----4---------|---------------|-----------4----|
--L-------------||--2--------------|-------0---------|---------------|----------------|
--L-------------||-----------------|------------0----|--2------------|--L-------------|


  Q    Q    Q       Q    Q    Q       H        Q       Q    Q    Q       Q    Q    Q     
-----------------|-----------------|----------------|-----------------|-----------------|
--0----2----3----|--3----2----3----|--2--------0----|-----------------|--0--------------|
-----------------|-----------------|----------------|--3--------------|-------0---------|
--0--------------|-----------------|----------------|------------4----|--0---------0----|
--2--------------|--4----0----4----|----------------|------------0----|--2--------------|
--3--------------|-----------------|--2-------------|--0----2---------|-----------------|


  Q    Q    Q       H.              H        Q       Q    Q    Q       Q    Q    Q     
-----------------|---------------|----------------|-----------------|-----------------|
--0--------------|---------------|----------------|-----------------|-----------------|
-------2----0----|---------------|----------------|-----------------|--3--------------|
-----------------|--4------------|--L-------------|--4----0---------|-------4---------|
--2----0---------|--0------------|-----------4----|------------4----|------------4----|
------------3----|--2------------|----------------|--2--------------|--L--------------|


  Q    Q    Q       H.                     
--2--------------|---------------|-------||
-------3----2----|--0------------|-------||
-----------------|---------------|-------||
--4--------------|---------------|-------||
-----------------|--2------------|-------||
--2--------------|---------------|-------||




Duration Legend
---------------
W - whole
H - half
Q - quarter
E - 8th
. - note dotted
|-n-|  - n-tuplets


Tablature Legend
----------------
L - tied note
Login or Register to remove this ad.