Ads

The White Lady (Hollow Knight) Guitar Tab

Submitted: Jan 29, 2021 by Emi (Last updated: Feb 02, 2021)

5
Average: 5 (3 votes)
Download | Listen
Game: Hollow Knight
Composer(s): Christopher Larkin
Style: Arrangement, Fingerstyle, Natural harmonics

Click here for a video example.

AutoScroll: Slow | Medium | Fast
Title: The White Lady
SubTitle: Hollow Knight
Composer: Christopher Larkin
Arranged for Guitar by Emilien Delcour
Tempo = 58
Guitar

Legend
L - tied note
h - hammer on/pull off
^ - brush down


        ^                ^                      ^              
E |-----3-------|--6--5--1-------------|--1-------------------|
B |--1--1-------|--------1-------------|-----4--1-----4-------|
G |-----0-------|--------2-------------|--------1-------------|
D |-----1-------|--------3-------------|--------1-------------|
A |--3----------|--3-----3-------------|--3-----3-------------|
E |-------------|----------------------|----------------------|

  ^                                                    ^          ^        
----------------------------------------------------|-------|-----3-------|
--3-----------------4h-3----------------------------|--1----|--1--1-------|
--3-----------------------5-------------------------|--0----|-----0-------|
--3-----------------------5-------------------------|--1----|-----1-------|
--3-------------------------------------------------|--3----|--3----------|
----------------------------------------------------|-------|-------------|

        ^                      ^              
--6--4----------------|----------------------|
--------6-------------|--6--4--------4-------|
--------6-------------|--------5-------------|
--------6-------------|--------6-------------|
--4-----4-------------|--------6-------------|
----------------------|--4-------------------|

  ^                                                    ^     
----------------------------------------------------|-------|
----------------------------------------------------|--1----|
--7-----------------8h-7----------------------------|--0----|
--8-----------------------10------------------------|--1----|
--8-------------------------------------------------|--3----|
--6-------------------------------------------------|-------|

                               ^                                     
----------------------|----------------------|----------------------|
--1-------------------|----------------------|--1-------------------|
-----3--0--------3----|--3--2----------------|-----4--0--------4----|
--1-------------------|--3-----3-------------|--------0-------------|
--------3-------------|--------3-------------|--------2-------------|
----------------------|--------1-------------|--3-------------------|

        ^                      ^                      ^                    
----------------------|--------1-------------|--1--3--4-----------3--1----|
--0-----1-------------|--4--3--3--------3----|--------0-------------------|
-----5--1-------------|--------3-------------|--------4-------------------|
--------1-------------|--------3-------------|--------3-------------------|
----------------------|--1-----1-------------|--2-----2-------------------|
--4-------------------|----------------------|----------------------------|

        ^                      ^                                     
--1-----3--------3----|--3--1----------------|----------------------|
-----4--1-------------|--------1-------------|----------------------|
--------0-------------|--------2-------------|--------0--------0----|
--------1-------------|--------3-------------|--3--1----------------|
--3-------------------|--3-----3-------------|--3-----3-------------|
----------------------|----------------------|----------------------|

                       
----------------------|
----------------------|
--0-------------------|
-----3----------------|
--3-----3-------------|
--------1-------------|

                                                                             
----------------------------------------------------------------------------|
-----------------------------------------------------------------1----------|
-----------------------------------------------2--------------2-----2-------|
--------------------------------------------3-----3--------3-----------3----|
--3--------------------------------------3-----------3--3-------------------|
--------------------------1L----------1-------------------------------------|

                                                                             
-----------------------------5-----------------------------------8--13L-----|
-----------6--------------6-----6--------------10-------------10------------|
--------5-----5--------5-----------5--------10----10-------10---------------|
-----7-----------7--7--------------------10----------10---------------------|
--8-----------------------------------8-------------------------------------|
--------------------------------------------------------8-------------------|

                   ^                                                      
--13----11---|-----3-------|--6--5----------------|--1-------------------|
-------------|--1----------|--------6-------------|-----4--1-----4-------|
-------------|-----0-------|----------------------|--------1-------------|
-------------|-----1-------|--------3-------------|----------------------|
-------------|--3----------|--3-------------------|--3-------------------|
-------------|-------------|----------------------|----------------------|

                                                  ^
----------------------------------------------------------------------------|
--3-----------------4--3--------------------------1L------------------------|
--------------------------5L----------------------5L------------------------|
--3-----------------------------------------------1L------------------------|
--------------------------------------------------3L------------------------|
----------------------------------------------------------------------------|


-------||
--1----||
--5----||
--1----||
--3----||
-------||

Login or Register to remove this ad.