Old Secret (Hiveswap) Guitar Tab

Submitted: Mar 27, 2017 by johnbie (Last updated: Mar 30, 2017)

4
Average: 4 (1 vote)
Download | Listen
Game: Hiveswap
Composer(s): Toby Fox
Style: Arrangement, Fingerstyle
Series: Homestuck

AutoScroll: Slow | Medium | Fast
Old Secret
Song by Toby Fox
Dropped D tuning except you drop two semitones more (CADGEB)
Capo 2


     E  E  E  E  E  E  E  E     E  E  E  E  E  E  E  E     E  E  E  E  E  E  E  E   
E||--1--1--1--1--3--3--3--3--|--4--4--6--4--3--3--1--1--|--4--4--4--4--3--3--3--3--|
B||--------------------------|--------------------------|--------------------------|
G||--------------------------|--------------------------|--------------------------|
D||--------------------------|--------------------------|--------------------------|
A||--------------------------|--------------------------|--------------------------|
C||--------------------------|--------------------------|--------------------------|


  E  E  E  E  E  E  E  E     E  E  E  E  E  E  E  E     E  E  E  E  E  E  E  E     E  E  E  E  E  E  E  E   
--4--4--6--4--3--1--0--0--|--0--0--0--0--0--0--0--0--|--------------3--3--3--3--|--4--4--6--4--3--3--1--1--|
--------------------------|--------------------------|--6--6--6--6--------------|--------------------------|
--------------------------|--------------------------|--------------------------|--------------------------|
--------------------------|--------------------------|--------------------------|--------------------------|
--------------------------|--------------------------|--------------------------|--------------------------|
--------------------------|--------------------------|--5-----------3-----------|--1-----------0-----------|


  E  E  E  E  E  E  E  E     E  E  E  E  E  E  E  E     E  E  E  E  E  E  E  E     E  E  E  E  S S E  E  E   
--4--4--4--4--3--3--3--3--|--4--4--6--4--3--1--0--0--|--------------3--3--3--3--|--4--4--6--4--3---3--1--0--|
--------------------------|--------------------------|--6--6--6--6--------------|---------------------------|
--------------------------|--------------------------|-----5--3-----0-----------|-----0--3--1--0-1-0--------|
--------------------------|--------------------------|-----------6--------3-----|---------------------3--2--|
--------------------------|--------------------------|--------------------------|---------------------------|
--5-----------3-----------|--1-----------0-----3-----|--5-----------3-----------|--1-----------0------------|


  E  E  E  E  E  E  E  E     E  E  E  E  E  E  E  E     E  E  E  E  E  E  E  E     E  E  E  E  S S E  E  E   
--4--4--4--4--3--3--3--3--|--4--4--6--4--3--1--0--0--|--------------3--3--3--3--|--4--4--6--4--3---3--1--0--|
--------------------1-----|--------------1-----------|--6--6--6--6--------------|---------------------------|
-----------0--1--3-----3--|--1--0--6-----------------|-----5--3--0--1--0--------|-----1--3--1--0-1-0--------|
--3-----3-----------------|--------------------------|--------------------3--2--|--3------------------3--2--|
-----3--------------------|--------------------------|--------------------------|---------------------------|
--5-----------3-----------|--1-----------0-----3-----|--5-----------3-----------|--1-----------0------------|


  E  E  E  E  E  E  E  E     E  E  E  E  E  E  E  E     E  E  E  E  E  E  E  E     E  E  E  E  E  E  E  E   
--4--4--4--4--3--3--3--3--|--4--4--6--4--3--1--0--0--|--1--1--1--1--3--3--3--3--|--4--4--6--4--3--3--1--1--|
--------------------------|--------------------------|--------------------------|--------------------------|
-----------0--1--0-----0--|--1--0--------------------|--------------------------|--------------------------|
--3-----3-----------1-----|--------3--2--3-----------|--------------------------|--------------------------|
-----3--------------------|--------------------------|--------------------------|--------------------------|
--5-----------3-----------|--1-----------0-----------|--------------------------|--------------------------|


  E  E  E  E  E  E  E  E     E  E  E  E  E  E  E  E     W                          
--4--4--4--4--3--3--3--3--|--4--4--6--4--3--1--0--0--|--L----------------|-------||
--------------------------|--------------------------|-------------------|-------||
--------------------------|--------------------------|-------------------|-------||
--------------------------|--------------------------|-------------------|-------||
--------------------------|--------------------------|-------------------|-------||
--------------------------|--------------------------|-------------------|-------||





Duration Legend
---------------
W - whole
H - half
Q - quarter
E - 8th
. - note dotted


Tablature Legend
----------------
L - tied note
Login or Register to remove this ad.