47 Makes a Decision (Hitman 2: Silent Assassin) Guitar Tab

Submitted: Mar 23, 2014 by Matatiahu (Last updated: Mar 30, 2014)

4.5
Average: 4.5 (4 votes)
Download | Listen
Game: Hitman 2: Silent Assassin
Composer(s): Jesper Kyd
Style: Arrangement, Fingerstyle

Click here for a video example.

AutoScroll: Slow | Medium | Fast
			47 Makes a Decision
		     Hitman 2: Silent Assassin
			    Jesper Kyd

Capo on first fret

Dropped D

 E||--------------------------------|--------------------------------
 B||--------------------------------|--------------------------------
 G||--------------------------------|--------------------------------
 D||--0-0-0---4---------------------|--0-0-0---4---------------------
 A||----------2---------------------|----------2---------------------
 D||--0-0-0---4---------------------|--0-0-0---4---------------------

---------|-2-----0-------5------|-7-------7--------10----12-
--0------|-----3----------------|-----7-----8---------------
---------|----------------------|---------------------------
---------|----------------------|---------------------------
---------|---------------0------|---------------------------
--0------|----------------------|-9-------------------------

-14-----14-12----------|-10-----10-9----------
-----15--------14------|-----12---------------
-----------------------|--------------11------
-----------------------|----------------------
----------------0------|----------------------
--0--------------------|--9-------------------

--2-------------2-0--------------|---------------------------------
--3-------3-------2-------2------|--3-------------3-2--------------
----------4---------------2------|--4-------4-------2--------------
----------0---------------0------|----------0---------------4----5-
------0-------0-------0-------0--|------0-------0-------0----------
--0---------------0--------------|--0---------------0--------------

---------------------------------|----------2------/7-5-------------
--------------------------3------|--0-------------3-----7-5-3-2-3-5-
----------4-------0--------------|----------------------------------
--4-------------4----------------|----------------------------------
---------------------------------|--2-------------------------------
--0------------------------------|----------------------------------

--------------------------------------------------------------------5--
--0-------------------0---------------------------------------7-5-7----
------------------------------------------------------4---4-7----------
--------------------------------------------------------7--------------
--2-2-2---2---2-------2-2-2---2---2-------2-2-2---2--------------------
------------------------------------<>12-------------------------------

---------------------------------|---------------------------------
------------------4-------6------|--4-----------------------3------
--5------------------------------|----------3----------------------
--------------5------------------|------5-------5------------------
--3------------------------------|--6---------------6--------------
---------------------------------|---------------------------------

--------------------------3------|---------------------------------
--4---------------4-------------4|--6-----------------------4-----3
--------------3-------3----------|---------------------------------
---------------------------------|----------3----------------------
--1------------------------------|------3-------3------------------
---------------------------------|--3---------------3--------------

---------------------------------|---------------------------------
------------------4-------6------|--4-------4-------4-------3-----4
--5-------5----------------------|--5-------5-------5--------------
--5-------5-----------5----------|------1-------1------------------
------3-------3------------------|------6-------6------------------
---------------------------------|--6------------------------------

---------------------------------|---------------------------------
--8-------8-------8-------------8|--------------------------4-----3
--8-------8-------8-------8------|-10------10------10--------------
------8-------8------------------|--8-------8-------8--------------
--6------------------------------|------8-------8------------------
---------------------------------|--8------------------------------

--------------3--------------------------
------------------4----------------------
--5-------------------5------------------
--5-------------------5------------------
--3-3-3---3---3-------3-3-3---3---3------
--------------------------------------5--

----------------------3------------------
-----------------43--4-------------------
--5--------------------------------------
--5--------------------------------------
--3-3-3---3---3---3---3-3-3---3---3------
--------------------------------------5--

----------------------3---------------2--
-----------------43--4-------------------
--5--------------------------------------
--5--------------------------------------
--3-3-3---3---3---3---3-3-3---3---3------
--------------------------------------4--

--------------3---2---------------3---2--
-----------------------------------------
--5-------------------5------------------
--5-------------------5------------------
--3-3-3---3-----------3-3-3---3----------
--------------5---4---------------5---4--

--------------3---2---------------3---2--
-----------------------------------------
--5-------------------5------------------
--5---4-5-4-----------5------------------
--3-3-3---3-----------3-3-3---3----------
--------------5---4---------------5---4--

-------------|
-------------|
--5----------|
--5----------|
--3-3-3---3--|
-------------|
Login or Register to remove this ad.

1 comment on 47 Makes a Decision

Video Example

Now it's in the right place ;)