Ads

Mae wo Muite (Hikaru no Go) Guitar Tab

Submitted: Mar 22, 2012 by Pasto

0
Download | Listen
Game: Hikaru no Go
Composer(s): Kei Wakakusa
Style: Transcription

AutoScroll: Slow | Medium | Fast
Anime : Hikaru No Go

Title :  Mae wo Muite

Tabbed by : Pasto


E|-------0-----2-----|-3---3---2-----3----2-----0---|-------------0-----|-2---2---0-----2----0---------|
B|-------------------|------------------------------|-------3-----------|--------------------------3---|
G|-------------------|------------------------------|-------------------|------------------------------|
D|-------------------|------------------------------|-------------------|------------------------------|
A|-------------------|------------------------------|-------------------|------------------------------|
E|-------------------|------------------------------|-------------------|------------------------------|


E|-------0-----2-----|-3---3---2-----3----5---------|-7----5----3----0--|-2-----7----------------------|
B|-------------------|------------------------------|-------------------|------------------------------|
G|-------------------|------------------------------|-------------------|------------------------------|
D|-------------------|------------------------------|-------------------|------------------------------|
A|-------------------|------------------------------|-------------------|------------------------------|
E|-------------------|------------------------------|-------------------|------------------------------|


E|-10----0-----2-----|-3--3--3--2-----3----2-----0--|-------------0-----|-2---2---0-----2----3---------|
B|-------------------|------------------------------|-------3-----------|------------------------------|
G|-------------------|------------------------------|-------------------|------------------------------|
D|-------------------|------------------------------|-------------------|------------------------------|
A|-------------------|------------------------------|-------------------|------------------------------|
E|-------------------|------------------------------|-------------------|------------------------------|


E|-5----3----2-------|-0----7---------5----7--------|--------0----------|-----------6----5-------------|
B|----------------3--|---------------------------3--|-------------------|------3-----------------------|
G|-------------------|------------------------------|-------------------|------------------------------|
D|-------------------|------------------------------|-------------------|------------------------------|
A|-------------------|------------------------------|-------------------|------------------------------|
E|-------------------|------------------------------|-------------------|------------------------------|


E|-6-----------------|-3----3----6----8-------------|-6----8----10------|------10---8----6-------------|
B|-------------------|------------------------------|-------------------|------------------------------|
G|-------------------|------------------------------|-------------------|------------------------------|
D|-------------------|------------------------------|-------------------|------------------------------|
A|-------------------|------------------------------|-------------------|------------------------------|
E|-------------------|------------------------------|-------------------|------------------------------|


E|------6----6----6--|-8----6----6----8-------------|------10---10------|------------------------------|
B|-------------------|------------------------------|-------------------|---------------------------3--|
G|-------------------|------------------------------|-------------------|------------------------------|
D|-------------------|------------------------------|-------------------|------------------------------|
A|-------------------|------------------------------|-------------------|------------------------------|
E|-------------------|------------------------------|-------------------|------------------------------|


E|-------10---8------|------5----3----2-------------|-----3----5----6---|------3----5----6-------------|
B|-4-----------------|------------------------------|-------------------|------------------------------|
G|-------------------|------------------------------|-------------------|------------------------------|
D|-------------------|------------------------------|-------------------|------------------------------|
A|-------------------|------------------------------|-------------------|------------------------------|
E|-------------------|------------------------------|-------------------|------------------------------|


E|------6----6----6--|-8----6----5----5-------------|-3----3------------|-------3-----5----------------|
B|-------------------|------------------------------|-------------------|------------------------------|
G|-------------------|------------------------------|-------------------|------------------------------|
D|-------------------|------------------------------|-------------------|------------------------------|
A|-------------------|------------------------------|-------------------|------------------------------|
E|-------------------|------------------------------|-------------------|------------------------------|


E|-7-----10----------|-5-----3-----5----------------|-7----5-----3----2-|-------0-----------3-----5----|
B|-------------------|------------------------------|-------------------|------------------------------|
G|-------------------|------------------------------|-------------------|------------------------------|
D|-------------------|------------------------------|-------------------|------------------------------|
A|-------------------|------------------------------|-------------------|------------------------------|
E|-------------------|------------------------------|-------------------|------------------------------|


E|-7-----10----------|-5-----3---3-----5----3-----5-|--7-----10---------|-------3-----5----------------|
B|-------------------|------------------------------|-------------------|------------------------------|
G|-------------------|------------------------------|-------------------|------------------------------|
D|-------------------|------------------------------|-------------------|------------------------------|
A|-------------------|------------------------------|-------------------|------------------------------|
E|-------------------|------------------------------|-------------------|------------------------------|


E|-7-----10----------|-5-----3-----5-----7----5---3-|---2---------0-----|------2----3----5-------------|
B|-------------------|------------------------------|-------------------|------------------------------|
G|-------------------|------------------------------|-------------------|------------------------------|
D|-------------------|------------------------------|-------------------|------------------------------|
A|-------------------|------------------------------|-------------------|------------------------------|
E|-------------------|------------------------------|-------------------|------------------------------|


E|-7----0---0------7-|-3-----5-----7---7------------|-----------3---3---|-5----3----2----0---0---------|
B|-------------------|------------------------------|-------------------|------------------------------|
G|-------------------|------------------------------|-------------------|------------------------------|
D|-------------------|------------------------------|-------------------|------------------------------|
A|-------------------|------------------------------|-------------------|------------------------------|
E|-------------------|------------------------------|-------------------|------------------------------|


E|--------|--------|
B|--------|-0------|
G|-2------|-0------|
D|--------|-2------|
A|--------|--------|
E|--------|--------|



Login or Register to remove this ad.