Ads

Dear You (Higurashi no Naku Koro Ni) Guitar Tab

Submitted: Apr 12, 2010 by tiganior1 (Last updated: Apr 12, 2010)

5
Average: 5 (7 votes)
Download | Listen
Game: Higurashi no Naku Koro Ni
Composer(s): Kenji Kawai
Style: Arrangement, Fingerstyle, Transcription

AutoScroll: Slow | Medium | Fast
"You"

Higurashi no Naku Koro Ni
Guitar (Capo 1)

Title: You
Artist: Higurashi no Naku Koro Ni
Composer: Kenji Kawai
Album: Thanks/You
Author: dai
Tabbed by: tiganior1, 09/04/2010 (DD/MM/YYYY)



Transcribed with help from abunai59's tab (http://www.gametabs.net/higurashi-no-naku-koro-ni/dear-you) 
which was based off xxxxxAznpridexxxxx's transcription.  

Sorry if there are any mistakes, this is my first tab and chances are there will be some.

                                     
      Q                       Q    Q    Q       Q    Q    Q    Q     
E||------------------------------------------|----------------------|
B||------------------------------------------|----------------------|
G||--------------------------------0----L----|----------------------|
D||---------------------------2--------------|------------2----L----|
A||---0--------------------------------------|-------3--------------|
E||------------------------------------------|--1-------------------|


  Q    Q    Q    Q       Q    Q    Q    Q       Q    Q    Q    Q     
----------------------|----------------------|----------------------|
----------------------|----------------------|----------------------|
----------------------|------------4----L----|------------0----L----|
------------3----L----|-------5--------------|-------2--------------|
-------5--------------|--3-------------------|--0-------------------|
--3-------------------|----------------------|----------------------|


  Q    Q    Q    Q       Q    Q    Q    Q       Q    Q    Q    Q     
----------------------|----------------------|----------------------|
----------------------|----------------------|----------------------|
----------------------|----------------------|------------4----L----|
------------2----L----|------------3----L----|-------5--------------|
-------3--------------|-------5--------------|--3-------------------|
--1-------------------|--3-------------------|----------------------|


  Q    Q    E  E  Q       Q    Q    E  E  Q       Q    Q    E  E  Q     
------------0----------|------------0----------|------------0----------|
--3------------3--1----|--3------------3--1----|--3------------3--1----|
------------0-----L----|-------0---------------|-----------------------|
-------2---------------|------------2-----L----|-------0----3-----L----|
--0--------------------|-------3---------------|-----------------------|
-----------------------|--1--------------------|--3--------------------|


  Q    Q    Q    Q       Q    Q    E  E  Q       Q    Q    E  E  Q     
-------3--------------|------------0----------|------------0----------|
--1---------3---------|--3------------3--1----|--3------------3--1----|
-------0----4----L----|------------0-----L----|-------0---------------|
----------------------|-------2---------------|------------2-----L----|
--3-------------------|--0--------------------|-------3---------------|
----------------------|-----------------------|--1--------------------|


  Q    Q    E  E  Q       Q    Q    H           Q    Q    Q    Q     
------------0----------|---------------------|----------------------|
--3------------3--1----|--1---------0--------|----------------------|
-----------------------|-------0----L--------|------------0----L----|
-------0----3-----L----|---------------------|-------2--------------|
-----------------------|--3------------------|--0-------------------|
--3--------------------|---------------------|----------------------|


  Q    Q    Q    Q       Q    Q    Q    Q       Q    Q    Q    Q     
----------------------|----------------------|----------------------|
----------------------|----------------------|----------------------|
----------------------|----------------------|------------4----L----|
------------2----L----|------------3----L----|-------5--------------|
-------3--------------|-------5--------------|--3-------------------|
--1-------------------|--3-------------------|----------------------|


  Q    Q    E  E  Q       Q    Q    E  E  Q       Q    Q    E  E  Q     
------------0----------|------------0----------|------------0----------|
--3------------3--1----|--3------------3--1----|--3------------3--1----|
------------0-----L----|-------0---------------|-----------------------|
-------2---------------|------------2-----L----|-------0----3-----L----|
--0--------------------|-------3---------------|-----------------------|
-----------------------|--1--------------------|--3--------------------|


  Q    Q    Q    Q       Q    Q    E  E  Q       Q    Q    E  E  Q     
-------3--------------|------------0----------|------------0----------|
--1---------3---------|--3------------3--1----|--3------------3--1----|
-------0----4----L----|------------0-----L----|-------0---------------|
----------------------|-------2---------------|------------2-----L----|
--3-------------------|--0--------------------|-------3---------------|
----------------------|-----------------------|--1--------------------|


  Q    Q    E  E  Q       Q    Q    H             Q    Q    Q    Q     
------------0----------|---------------------||-----------------------|
--3------------3--1----|--1---------0--------||-----------------------|
-----------------------|-------0----L--------||*--0--------------0----|
-------0----3-----L----|---------------------||*-------2--------------|
-----------------------|--3------------------||---0---------x---------|
--3--------------------|---------------------||-------------x---------|


  Q    Q    Q    Q       Q    Q    Q    Q       Q    Q    Q    Q     
----------------------|-----------------0----|--0----L----L---------|
--1----1----1----1----|--3----3----3---------|------------0---------|
----------------------|----------------------|-------0---------L----|
------------2----L----|------------3----L----|----------------------|
-------3--------------|-------5--------------|--3-------------------|
--1-------------------|--3-------------------|----------------------|


  Q    Q    Q    Q       Q    Q    Q    Q       Q    Q    Q    Q     
----------------------|----------------------|-----------------3----|
----------------------|--1----1----1----1----|--3----3----3---------|
--0--------------0----|----------------------|----------------------|
-------2--------------|------------2----L----|------------3----L----|
--0---------x---------|-------3--------------|-------5--------------|
------------x---------|--1-------------------|--3-------------------|


  Q    Q    Q    Q       Q    Q    Q    Q       Q    Q    Q    Q     
--0----L----L---------|----------------------|----------------------|
------------0---------|----------------------|--1----1----1----1----|
-------0---------L----|--0--------------0----|----------------------|
----------------------|-------2--------------|------------2----L----|
--3-------------------|--0---------x---------|-------3--------------|
----------------------|------------x---------|--1-------------------|


  Q    Q    Q    Q       Q    Q    Q    Q       Q    Q    Q    Q     
-----------------0----|--0----L----L---------|----------------------|
--3----3----3---------|------------0---------|----------------------|
----------------------|-------0---------L----|--0--------------0----|
------------3----L----|----------------------|-------2--------------|
-------5--------------|--3-------------------|--0---------x---------|
--3-------------------|----------------------|------------x---------|


  Q    Q    Q    Q       Q    Q    Q    Q       Q    Q    Q    Q     
----------------------|-----------------3----|--0--------------3----|
--1----1----1----1----|--3----3----3---------|------------0---------|
----------------------|----------------------|-------0---------L----|
------------2----L----|------------3----L----|----------------------|
-------3--------------|-------5--------------|--3-------------------|
--1-------------------|--3-------------------|----------------------|


  Q    Q    Q    Q       Q    Q    Q    Q       Q    Q    Q    Q     
--3----0----L----3----|--3-------------------|-----------------0----|
----------------------|-------1---------1----|--3---------3---------|
------------0----L----|----------------------|-------5--------------|
-------2--------------|------------2----L----|------------3----L----|
--0-------------------|-------3--------------|-------5--------------|
----------------------|--1-------------------|--3-------------------|


  Q    Q    Q    Q       Q    Q    Q    Q       Q    Q    Q    Q     
--0---------0----3----|--3----0----L----3----|--3-------------------|
-------3----0---------|----------------------|-------1---------1----|
-------0---------L----|------------0----L----|----------------------|
----------------------|-------2--------------|------------2----L----|
--3-------------------|--0-------------------|-------3--------------|
----------------------|----------------------|--1-------------------|


  Q    Q    Q    Q       Q    Q    Q    Q       Q    Q    E  E  Q     
----------------------|----------------------|------------0----------|
--3---------3----L----|--1---------0----1----|--3------------3--1----|
-------5--------------|-------0---------L----|------------0-----L----|
------------3----L----|----------------------|-------2---------------|
-------5--------------|--3-------------------|--0--------------------|
--3-------------------|----------------------|-----------------------|


  Q    Q    E  E  Q       Q    Q    E  E  Q       Q    Q    Q    Q     
------------0----------|------------0----------|-------3--------------|
--3------------3--1----|--3------------3--1----|--1---------3---------|
-------0---------------|-----------------------|-------0----4----L----|
------------2-----L----|-------0----3-----L----|----------------------|
-------3---------------|-----------------------|--3-------------------|
--1--------------------|--3--------------------|----------------------|


  Q    Q    E  E  Q       Q    Q    E  E  Q       Q    Q    E  E  Q     
------------0----------|------------0----------|------------0----------|
--3------------3--1----|--3------------3--1----|--3------------3--1----|
------------0-----L----|-------0---------------|-----------------------|
-------2---------------|------------2-----L----|-------0----3-----L----|
--0--------------------|-------3---------------|-----------------------|
-----------------------|--1--------------------|--3--------------------|


  Q    Q    H           Q    Q    E  E  Q       Q    Q    E  E  Q     
---------------------|------------0----------|------------0----------|
--1---------0--------|--3------------3--1----|--3------------3--1----|
-------0----L--------|------------0-----L----|-------0---------------|
---------------------|-------2---------------|------------2-----L----|
--3------------------|--0--------------------|-------3---------------|
---------------------|-----------------------|--1--------------------|


  Q    Q    E  E  Q       Q    Q    Q    Q       Q    Q    E  E  Q     
------------0----------|-------3--------------|------------0----------|
--3------------3--1----|--1---------3---------|--3------------3--1----|
-----------------------|-------0----4----L----|------------0-----L----|
-------0----3-----L----|----------------------|-------2---------------|
-----------------------|--3-------------------|--0--------------------|
--3--------------------|----------------------|-----------------------|


  Q    Q    E  E  Q       Q    Q    E  E  Q       Q    Q    H         
------------0----------|------------0----------|---------------------|
--3------------3--1----|--3------------3--1----|--1---------0--------|
-------0---------------|-----------------------|-------0----L--------|
------------2-----L----|-------0----3-----L----|---------------------|
-------3---------------|-----------------------|--3------------------|
--1--------------------|--3--------------------|---------------------|


  Q    Q    Q    Q       Q    Q    Q    Q       Q    Q    Q    Q     
----------------------|----------------------|----------------------|
----------------------|----------------------|----------------------|
------------0----L----|----------------------|----------------------|
-------2--------------|------------2----L----|------------3----L----|
--0-------------------|-------3--------------|-------5--------------|
----------------------|--1-------------------|--3-------------------|


  Q    Q    Q    Q       Q    Q    Q    Q       Q    Q    Q    Q     
----------------------|----------------------|----------------------|
------------0----L----|----------------------|----------------------|
-------0---------L----|------------0----L----|----------------------|
----------------------|-------2--------------|------------2----L----|
--3-------------------|--0-------------------|-------3--------------|
----------------------|----------------------|--1-------------------|


  Q    Q    Q    Q       Q    Q    Q    Q          Q    Q    Q    Q     
----------------------|-----------------------||--------0---------0----|
----------------------|------------0----L-----||---3---------3---------|
----------------------|-------0---------L----*||*------------0----L----|
------------3----L----|----------------------*||*-------2--------------|
-------5--------------|--3--------------------||---0-------------------|
--3-------------------|-----------------------||-----------------------|


  Q    Q    Q    E  E     Q    Q    Q    Q       Q    Q    Q    Q     
--5----0----0-------0--|-----------------3----|--0----L----L---------|
-----------------3-----|--3----3----3---------|------------0----L----|
-----------------------|----------------------|-------0---------L----|
------------2----L-----|------------3----L----|----------------------|
-------3---------------|-------5--------------|--3-------------------|
--1--------------------|--3-------------------|----------------------|


  Q    Q    Q    Q       Q    Q    Q    E  E     Q    Q    Q    Q     
-------0---------0----|--5----0----0-------0--|----------------------|
--3---------3---------|-----------------3-----|--3----3----3----1----|
------------0----L----|-----------------------|----------------------|
-------2--------------|------------2----L-----|------------3----L----|
--0-------------------|-------3---------------|-------5--------------|
----------------------|--1--------------------|--3-------------------|


  Q    Q    Q    Q         Q    Q    E  E  Q       Q    Q    E  E  Q     
-----------------------||------------0----------|------------0----------|
--1---------0----L-----||--3------------3--1----|--3------------3--1----|
-------0---------L----*||------------0-----L----|-------0---------------|
----------------------*||-------2---------------|------------2-----L----|
--3--------------------||--0--------------------|-------3---------------|
-----------------------||-----------------------|--1--------------------|


  Q    Q    E  E  Q       Q    Q    Q    Q       Q    Q    E  E  Q     
------------0----------|-------3--------------|------------0----------|
--3------------3--1----|--1---------3---------|--3------------3--1----|
-----------------------|-------0----4----L----|------------0-----L----|
-------0----3-----L----|----------------------|-------2---------------|
-----------------------|--3-------------------|--0--------------------|
--3--------------------|----------------------|-----------------------|


  Q    Q    E  E  Q       Q    Q    E  E  Q       Q    Q    H         
------------0----------|------------0----------|---------------------|
--3------------3--1----|--3------------3--1----|--1---------0--------|
-------0---------------|-----------------------|-------0----L--------|
------------2-----L----|-------0----3-----L----|---------------------|
-------3---------------|-----------------------|--3------------------|
--1--------------------|--3--------------------|---------------------|


  Q    Q    E  E  Q       Q    Q    E  E  Q       Q    Q    E  E  Q     
------------0----------|------------0----------|------------0----------|
--3------------3--1----|--3------------3--1----|--3------------3--1----|
------------0-----L----|-------0---------------|-----------------------|
-------2---------------|------------2-----L----|-------0----3-----L----|
--0--------------------|-------3---------------|-----------------------|
-----------------------|--1--------------------|--3--------------------|


  Q    Q    Q    Q       Q    Q    E  E  Q       Q    Q    E  E  Q     
-------3--------------|------------0----------|------------0----------|
--1---------3---------|--3------------3--1----|--3------------3--1----|
-------0----4----L----|------------0-----L----|-------0---------------|
----------------------|-------2---------------|------------2-----L----|
--3-------------------|--0--------------------|-------3---------------|
----------------------|-----------------------|--1--------------------|


  Q    Q    E  E  Q       Q    Q    H           Q    Q    Q    Q     
------------0----------|---------------------|----------------------|
--3------------3--1----|--1---------0--------|----------------------|
-----------------------|-------0----L--------|------------0----L----|
-------0----3-----L----|---------------------|-------2--------------|
-----------------------|--3------------------|--0-------------------|
--3--------------------|---------------------|----------------------|


  Q    Q    Q    Q       Q    Q    Q    Q       Q    Q    Q    Q     
----------------------|----------------------|----------------------|
----------------------|----------------------|------------0----L----|
----------------------|----------------------|-------0---------L----|
------------2----L----|------------3----L----|----------------------|
-------3--------------|-------5--------------|--3-------------------|
--1-------------------|--3-------------------|----------------------|


  Q    Q    Q    Q       Q    Q    Q    Q       Q    Q    Q    Q     
----------------------|----------------------|----------------------|
----------------------|----------------------|----------------------|
------------0----L----|----------------------|----------------------|
-------2--------------|------------2----L----|------------3----L----|
--0-------------------|-------3--------------|-------5--------------|
----------------------|--1-------------------|--3-------------------|


  Q    Q    Q    Q       W                  
----------------------|-------------------||
------------0----1----|--1----------------||
-------0---------L----|--0----------------||
----------------------|--2----------------||
--3-------------------|--3----------------||
----------------------|-------------------||




Duration Legend
---------------
W - whole
H - half
Q - quarter
E - 8th
S - 16th
T - 32nd
X - 64th
. - note dotted
|-n-|  - n-tuplets

Tablature Legend
----------------
L - tied note
x - dead note
g - grace note
Login or Register to remove this ad.

4 comments on Dear You

this song is awesome!

5

this song is awesome!

o how fun

so jumpy

juhuu i found it this tab is

5

juhuu i found it
this tab is so wonderful
i can play this song all night

This is excellent!

This is excellent!