Ads

Opening Theme (Higurashi no Naku Koro Ni) Bass Tab

Submitted: Apr 26, 2016 by MarkTheGiraffe

5
Average: 5 (1 vote)
Download | Listen
Game: Higurashi no Naku Koro Ni
Composer(s): Kenji Kawai
Style: Transcription

AutoScroll: Slow | Medium | Fast
Song: Higurashi no Naku Koro Ni OP
Source: Higurashi no Naku Koro Ni
Artists: Eiko Shimamiya, Tomoyuki Nakazawa, Kazuya Takase
Tabbed By: MarkTheGiraffe
Date: 4/19/16

~~~~~~~~~~~~~~~~~~~~~~~~~~~~~~~~~~~~~~~~~~~~~~~~~~~~~~~~~~~~~~~~~~~~~~~~~

Main Riff:
Starts appx. 0:13 - Repeats until bridge
Skip last 3 notes of the 7th riff

     1 = + = 2 = + = 3 = + = 4 = + =   1 = + = 2 = + = 3 = + = 4 = + =
G|--|---------------------------------|---------------------------------|
D|4-|----2---3p2-----------------3p2--|----2---3p2-----------------3p2--|
A|4-|--------------2-----2h3----------|--------------2-----2h3----------|
E|--|0-0---0-----0---0-0-----0-0------|0-0---0-----0---0-0-----0-0------|

Bridge:
Starts appx. 0:50

     1 = + = 2 = + = 3 = + = 4 = + =   1 = + = 2 = + = 3 = + = 4 = + =
G|--|---------------------------------|---------------------------------|
D|4-|--------------5------------------|--------------5------------------|
A|4-|3-3-3-3-3-3-3---3-3-3-3-3-3-3-3--|3-3-3-3-3-3-3---3-3-3-3-3-3-3-3--|
E|--|---------------------------------|---------------------------------|

     1 = + = 2 = + = 3 = + = 4 = + =   1 = + = 2 = + = 3 = + = 4 = + =
G|--|---------------------------------|---------------------------------|
D|4-|--------------------------------*|---------------------------------|
A|4-|--------------2-----------------*|--------------2------------------|
E|--|0-0-0-0-0-0-0---0-0-0-0-0-0-0-0--|0-0-0-0-0-0-0---0-0-0-0-0-0-0-0--|

     1 = + = 2 = + = 3 = + = 4 = + =   1 = + = 2 = + = 3 = + = 4 = + = 
G|--|---------------------------------|---------------------------------|
D|4-|---------------------------------|---------------------------------|
A|4-|---------------------------------|2-2-2-2-2-2-2-2-2-2-2-2-2-2-2-2--|
E|--|2-2-2-2-2-2-2-2-2-2-2-2-2-2-2-2--|---------------------------------|

Outro Riff:
Starts appx. 1:08 - Repeats until end

     1 = + = 2 = + = 3 = + = 4 = + =   1 = + = 2 = + = 3 = + = 4 = + = 
G|--|---------------------------------|---------------------------------|
D|4-|----2-----0----------------------|----2-----0----------------------|
A|4-|--------------3-----2h3----------|--------------3-----2h3----------|
E|--|0-0---0-0---0---0-0-----0-0-0-0--|0-0---0-0---0---0-0-----0-0-0-0--|
Login or Register to remove this ad.