Ads

Opening Theme (Higurashi no Naku Koro Ni) Guitar Tab

Submitted: Sep 03, 2011 by Uminari

5
Average: 5 (5 votes)
Download | Listen
Game: Higurashi no Naku Koro Ni
Composer(s): Kenji Kawai
Style: Arrangement, Fingerstyle

AutoScroll: Slow | Medium | Fast
                    Higurashi no Naku Koro ni (OP version)                      

Composed by Nakazawa Tomoyuki
From Higurashi no Naku Koro ni
Tabbed by Uminari
September 2nd 2011

105 BPM

Solo guitar (Capo 2)
      Q.     H        E     E  S E  S E  E  E  Q     3x
D||-------------------L--|-----7-7--7-7--5--7--8-----||
A||---8------8--------L--|--8-------L-8--------L-----||
G||*--7------7--------L--|--7-------L-7--------L----*||
D||*---------------------|--------------------------*||
A||----------------------|---------------------------||
D||---0------------------|---------------------L-----||


  E  S E  S E  E  E  S S E       E  E  S S S S S S S S S S S S  
-----7-7--7-7--5--7---------||---------------------------------|
--8---------8---------------||---0-----------------------------|
--7---------7---------------||*--------------------------------|
---------------------x-x----||*--1-----1-0---------------------|
---------------------x-x----||---0-----------1-----0-1---------|
---------------------x-x----||---0--0------0---0-0-----0-0-1-0-|


  E  E  S S S S S S S S S S S S    E  E  S S S S S S S S S S S S  
--------------------------------|--------------------------------|
--0-----------------------------|--1-----------------------------|
--------------------------------|--0-----------------------------|
--0-----1-0---------------------|--0-----1-0---------------------|
--0-----------1-----0-1---------|--1-----------1-----0-1---------|
--0--0------0---0-0-----0-0-1-0-|--0--0------0---0-0-----0-0-1-0-|


  E  S S S S S S S S S S S S S S      E  S S S S S S S T T S S S T T S S  
-----0-0---0-0---0---0---0--------||-----0-0---0-0---0-----0---0---------|
-----0-0---0-0-------0---1--------||-----0-0---0-0---------0---1---------|
-----2-2---2-2---0---2---3-------*||-----2-2---2-2---0-----2---3---------|
---------1-0---------------------*||---------1-0-------------------------|
---------------1-----0-1----------||---------------1-------0-1-----------|
--0--0-------0---0-0-----0-0-1-0--||--0--0-------0---0-0-0-----0-0-0-1-0-|


  E  E  S S S S S S S S S S S S    E  S S S S S S S S S S S S S S  
-----0----0---0-0---------------|-------------------------------0-|
--0-----------------3-----------|-----3-3---3---3-3---1-------1---|
--------------------------------|---------------------------------|
--3-----1-0---------------------|---------1-0---------------------|
--------------1-----0-1---------|---------------1-----0-1---------|
--0--0------0---0-0-----0-0-1-0-|--0--0-------0---0-0-----0-0-1-0-|


  E  E  S S S S S S S S S S S S    E  E  S S S S S S S S S S S S  
--3---------------------------0-|--------------------------------|
--0-------------------------1---|--------------------------------|
--2---------------------------0-|--------------------------------|
--------1-0---------------------|--------1-0---------------------|
--------------1-----0-1---------|--------------1-----0-1---------|
--0--0------0---0-0-----0-0-1-0-|--0--0------0---0-0-----0-0-1-0-|


  E  E  S S S S S S S S S S S S    E  S S S S S S S S S S S S S S  
-----0----0---0-0---------------|-----------------------------0---|
--0-----------------3-----------|-----3-3---3---3-3---1-----1---1-|
--------------------------------|---------------------------------|
--3-----1-0---------------------|---------1-0---------------------|
--------------1-----0-1---------|---------------1-----0-1---------|
--0--0------0---0-0-----0-0-1-0-|--0--0-------0---0-0-----0-0-1-0-|


  E  E  S S S S S S S S S S S S    E  E  S S S S S S S S S S S S  
--3-----------------------------|--0-------------0-------3---2---|
--0-------------------------0-1-|--0-----------------------------|
--2-----------------------------|--2---------0-------0-----------|
--------1-0---------------------|--------1-0-----0-------3---2---|
--------------1-----0-1---------|--------------1-----0-1---------|
--0--0------0---0-0-----0-0-1-0-|--0--0------0---0-0-----0-0-1-0-|


  E  E  E  S E  S E  E  S S    E  E  E  S S S S S S E  S S  
--0--------3-3----------2-3-|--5---------------------------|
--1-------------------------|---------------3-----1----0---|
--0--------3-3--------------|--------0---------------------|
-----------3-3----------2-3-|--5---------------------------|
--1--1--1--1-1--1-1--1------|-----3--3--3-3-3-3-3-1-1--3-3-|
----------------------------|------------------------------|


  E  S S E  S E  S E  E  S S    E  S S E  S E  S E  E  S S  
----------------------3--2---|--3--5-5--------------0------|
--0--1-0-----------0---------|--3--3-3---------------------|
-----------------------------|-----0-0--------------3------|
--0------0----0--0----3--2---|-----------------------------|
--0--1-0-----------0---------|---------3--3-3--3-3--3--3-3-|
--0--0---0--0-0----0--0----0-|-----------------------------|


  E  E  E  S E  S E  E  S S    E  E  E  S E  S E  E  S S  
--0---------------0--0--3-0-|------------------------3---|
--0---------------0-------0-|------------------0---------|
--2---------------2--0----2-|------------------2--0------|
----------------------------|------------------------3---|
--1--1--1--1-1--1-1--1--1-1-|--1--1--1--1-1--1-1--1--1-1-|
----------------------------|----------------------------|


  E  E  S S S S S S S S E  S S    E  E  E  S E  S E  E  S S  
-----3--3-2-----3----------3---|--2-------------------------|
-------------------------------|----------------------------|
----------------------0--------|--2------------------2--2-2-|
-----3--3-2---2-3-2-----2--3---|--2------------------2--2-2-|
-------------------------------|--0--0--0--0-0--0-0--0--0-0-|
--2--2--2---2-2-----2---2----2-|----------------------------|


  E  S S S S S S S S S S S S S S    E  S S S S S S S S S S S S S S  
-----0-1-3---1-0---------0-------|-----0-1-3---1-0---------0-------|
---------------------3-----------|---------------------3-----------|
---------------------------------|---------------------------------|
-----0-1-3---1-0---------0-------|-----0-1-3---1-0---------0-------|
-----------3---------3-1---------|-----------3---------3-1---------|
--0--0-------0---0-0-----0-0-1-0-|--0--0-------0---0-0-----0-0-1-0-|


  E  E  S S S S S S S S S S S S    E  S S S S S S S S S S S S S S  
-----0--0---0-0---0-0-----------|-----0-2-3---3-0-----3---2-------|
-----0--0---0-1---1-1-----------|---------------------0---0-------|
-----2--2---2-3---3-3-----------|---------2---2-0-----------------|
--------------------------------|---------------------3---2-------|
--------1-3---------0-1---------|---------1-----------0-1---------|
--0--0------0-0-0-0-----0-0-1-0-|--0--0-----0-0-0-0-0-----0-0-1-0-|


  E  S S S S S S S S S S S S S S    E  S S S S S S S S S S S S S S  
-----0-1-3---1-0---------0-------|-----0-1-3---1-0---------0-------|
---------------------3-----------|---------------------3-----------|
---------------------------------|---------------------------------|
-----0-1-3---1-0---------0-------|-----0-1-3---1-0---------0-------|
-----------3---------3-1---------|-----------3---------3-1---------|
--0--0-------0---0-0-----0-0-1-0-|--0--0-------0---0-0-----0-0-1-0-|


  E  E  S S S S S S S S S S S S    E  E  S S S S S S S S S S S S  
-----0--0---0-0---0-0-----------|--------3-------2-----3-----5---|
-----0--0---0-1---1-1-----------|-----3--------------------------|
-----2--2---2-3---3-3-----------|----------------------------0---|
--------------------------------|--------3-------2-----3---------|
--------1-3---1-----0-1---------|--------1-3---1-----0-1---------|
--0--0------0---0-0-----0-0-1-0-|--0--0------0---0-0-----0-0-1-0-|


  W                   W                  
--0----------------|--L----------------||
-------------------|-------------------||
-------------------|-------------------||
--0----------------|--L----------------||
-------------------|-------------------||
--0----------------|-------------------||




Duration Legend
---------------
W - whole
H - half
Q - quarter
E - 8th
S - 16th
T - 32nd
X - 64th
. - note dotted
|-n-|  - n-tuplets


Tablature Legend
----------------
L - tied note
x - dead note
g - grace note
(n) - ghost note
> - accentuded note
NH - natural harmonic
AH - artificial harmonic
TH - tapped harmonic
SH - semi harmonic
PH - pitch harmonic
h - hammer on
p - pull off
b - bend
br - bendRelease
pb - preBend
pbr - preBendRelease
brb - bendReleaseBend
\n/ - tremolo bar dip
\n - tremolo bar dive
-/n - tremolo bar Release up
/n\ - tremolo bar inverted dip
/n - tremolo bar return
-\n - tremolo bar Release down
S - shift slide
s - legato slide
/ -  slide into from below or out of upwards
\ -  slide into from above or out of downwards
~ - vibrato
W - wide vibrato
tr - trill
TP - tremolo picking
T - tapping
S - slap
P - pop
< - fade in
^ - brush up
v - brush down
Login or Register to remove this ad.

3 comments on Opening Theme

you need someone with really

5

you need someone with really fucking strong thumbs to play this
but the midi sounds awesome, so I want to give it a try.
great job.

Lemoncobbler said you need

Lemoncobbler said

you need someone with really fucking strong thumbs to play this
but the midi sounds awesome, so I want to give it a try.
great job.

True. I tried various things but just couldn't give up the awesome bassline, haha. Thanks for the comments.

the .gp5 really helps, this

the .gp5 really helps, this is awesome!