Ads

Omoi Daite (Higurashi no Naku Koro Ni) Guitar Tab

Submitted: Jul 21, 2016 by scarecrowlol

5
Average: 5 (3 votes)
Download | Listen
Game: Higurashi no Naku Koro Ni
Composer(s): Kenji Kawai
Style: Arrangement, Fingerstyle, Pinch harmonics

AutoScroll: Slow | Medium | Fast
Title: Omoi Daite
SubTitle: Higurashi No Naku Koro Ni
Artist: Kawai Kenji
Tabber: Mitch Jackson
Tempo = 62
T/S = 4/4


     ^                            ^                            ^           ^                ^
     Q     Q     Q.       E       Q     Q     H                Q     Q     Q.       E       Q     Q     Q     E  E 
E |--------------2-------------|----------------------------|--------------2-------------|----------------------------|
B |--0--------------------3----|--2-------------------------|--0-----------0--------3----|--2-------------------------|
G |--0-------------------------|--2-----------2-------------|--0-----------0-------------|--2-----------------2--4----|
D |--2-------------------------|--4-----------4-------------|--2-------------------------|--4-----------4-------------|
A |--------2-------------------|--------4-------------------|--------2-------------------|--------4-------------------|
E |--0-------------------------|--2-------------------------|--0-------------------------|--2-------------------------|

     ^           ^                                             ^           ^                ^
     Q     Q     Q.       E       Q     Q     Q     E  E       Q     Q     Q.       E       Q     Q     Q     E  E
  |--------------3--------2----|----------------------------|--------------3--------5----|--7-------------------------|
  |--1-----------1-------------|--3-------------------------|--1-----------1-------------|--7-------------------------|
  |--2-----------2-------------|--4-----------4-----2--4----|--2-----------2-------------|--9-----------8-----0--2----|
  |--------2-------------------|--------4-------------------|--------2-------------------|--------------9-------------|
  |--0-------------------------|--2-------------------------|--0-------------------------|--------9-------------------|
  |----------------------------|----------------------------|----------------------------|--7-------------------------|

     ^                            ^                            ^                            ^             
     E  E  E  E  Q.       E       E  E  E  E  Q     Q          E  E  E  E  Q.       E       E  E  E  E  Q     E  E
  |--------------2-------------|----------------------------|--------------2-------------|----------------------------|
  |--0-----------3--------3----|--2-----------2-------------|--0-----------3--------3----|--2-----------2-------------|
  |--0--------0----------------|--2--------2--2-------------|--0--------0----------------|--2--------2--------2--4----|
  |--2-----4-------------------|--4-----4-----------4-------|--2-----4-------------------|--4-----4-------------------|
  |-----2----------------------|-----4----------------------|-----2----------------------|-----4----------------------|
  |--0-------------------------|--2-------------------------|--0-------------------------|--2-------------------------|

     ^           ^                ^                            ^           ^                ^                         
     E  E  E  E  Q.       E       E  E  E  E  Q     E  E       E  E  E  E  Q.       E       E  E  E  E  Q     Q
  |--------------3--------2----|--------------2-------------|--------------3--------5----|--7-------------------------|
  |--1--------1--5-------------|--3--------3----------------|--1--------1--5-------------|--7-------------------------|
  |--2-----2-----5-------------|--4-----4-----4-----2--4----|--2-----2-----5-------------|--9--------9--8-------------|
  |-----2----------------------|-----4----------------------|-----2----------------------|--------9-----9-----7-------|
  |--0-------------------------|--2-------------------------|--0-------------------------|-----9----------------------|
  |----------------------------|----------------------------|----------------------------|--7-------------------------|

     ^                             ^                           ^                               ^
     E  E  E  E  E  E  E  S S      E  E  E  E  E  E  E  E       E  E  E  E  E  E  S S S S      E  E  E  E  E  E  E  E 
  |--------------0----------3---|--0-----------------3-------|--2-----2-----------------2---|--5-----2-----2-------------|
  |--0-----1-----1--------1-----|--1-----3-----0-----1-------|--3-----3-----------3---3-----|--3-----3-----3-------------|
  |--2-----2-----2-----4--------|--2-----2-----2-----2-------|--4-----4-----4-------6-------|--------4-----4--------2----|
  |-----2-----2-----2-----------|-----2-----2-----2-----2----|-----4-----4-----4------------|-----4-----4-----4--5-------|
  |--0--------------------------|--0-------------------------|--2---------------------------|--2-------------------------|
  |-----------------------------|----------------------------|------------------------------|----------------------------|

     ^                              ^                            ^                              P.H.----------->  p.h 17
     E  E  E  E  E  E  S S S S      E  E  E  E  E  E  E  E       H           E  E  E  E       E  E  E  E  E  E  E  E  
  |--------------0-----------3---|--0-----------------3-------|--2-------------------------|-------------------<2><0>---|
  |--0-----1-----1-----1---1-----|--1-----3-----0-----1-------|--0-----------0--------0----|--3-------<3>---<0>---------|
  |--2-----2-----2-------4-------|--2-----2-----2-----2-------|--0-----------------0-------|-------<0>---<2>------------|
  |-----2-----2-----2------------|-----2-----2-----2-----2----|--2--------------4----------|----<4>---------------------|
  |--0---------------------------|--0-------------------------|--2-------------------------|----------------------------|
  |------------------------------|----------------------------|--0-------------------------|----------------------------|

                         
     W                          
  |--L--------------------------||
  |--L--------------------------||
  |--L--------------------------||
  |--L--------------------------||
  |--L--------------------------||
  |--L--------------------------||


Bars 17,19 and 21 can alternatively be played like so:

Bar 17 -                            Bar 19 -                              Bar 21 -
    
     ^                                    ^                                     ^
     E  E  E  E  E  E  E  S S             E  E  E  E  E  E  S S S S             E  E  E  E  E  E  S S S S
  |--------------0----------3---|      |--2-----2-----------------2---|      |--------------0-----------3---|
  |--0-----1-----1-----0--1-----|      |--3-----3-----------3-2-3-----|      |--0-----1-----1-----1-0-1-----|
  |--2-----2-----2--------------|      |--4-----4-----4---------------|      |--2-----2-----2---------------|
  |-----2-----2-----2-----------|      |-----4-----4-----4------------|      |-----2-----2-----2------------|
  |--0--------------------------|      |--2---------------------------|      |--0---------------------------|
  |-----------------------------|      |------------------------------|      |------------------------------|

       
Login or Register to remove this ad.