Ads

Main Theme Ai (Higurashi no Naku Koro Ni) Guitar Tab

Submitted: Dec 12, 2013 by kakesama (Last updated: Dec 15, 2013)

5
Average: 5 (1 vote)
Download | Listen
Game: Higurashi no Naku Koro Ni
Composer(s): Kenji Kawai
Style: Arrangement, Fingerstyle

AutoScroll: Slow | Medium | Fast
 Main Theme Ai
 Higurashi no naku koro ni
 Composed by Kenji Kawai

 e|-----------3---1-0-----0-----5--3--6----|-1--0-----3---1--0-----3---|
 B|--6--5--3-----------3--5-3-6------------|------------3-------3------|
 G|--------2--3-0------2--3--------2-----0-|----------3---------2--3-0-|
 D|-----0-----------0-----------0----------|----0--2---------0---------|
 A|----------------------------------------|---------------------------|
 E|-----------------------------------6----|---------------------------|

 |-1-0-----0--1-8--7--6------------------|--------5-----5----------|
 |------3-------------8---10--8--6--5--6-|--5--------5-------------|
 |------2---------------0-----------3----|-------------------------|
 |---0-----0----0--7----------0--7-------|--0-----0-----0-----0--2-|
 |--------------------6------------------|-----0-----------0-------|
 |---------------------------------------|-------------------------|

 |---------3----1-0-----0------5--3--6----|-1--3--1--------1-0-----3----|
 |-6-5--3------------3--5-3-6-------------|----------5----------3-------|
 |------2--3-0-------2--3---------2-----0-|-------2--3----------2--3--0-|
 |---0------------0------------0----------|----0--------2----0----------|
 |----------------------------------------|-----------------------------|
 |-----------------------------------6----|-----------------------------|

 |--1-0-----0-----8--7--6--------------------|-5--------3-|-5-----------5---|
 |-------3--------------8-----10--8--6--5--6-|------------|----------3--5^--|
 |-------2--3--------------0------------3----|----2--3----|----2--3-----3|--|
 |----0--------2--0--7------------0--7-------|-0----------|-0-----------0|--|
 |-------------------------------------------|------------|-----------------|
 |----------------------6--------------------|------------|-----------------|

Login or Register to remove this ad.

1 comment on Main Theme Ai

Excellent! Loved this anime.

5

Excellent! Loved this anime. Wish they still produced dvds of Ni and Kai..Gotta save up my money to get one on eBay :)