Ads

Main Theme (Higurashi no Naku Koro Ni) Guitar Tab

Submitted: Aug 08, 2014 by scarecrowlol

5
Average: 5 (3 votes)
Download | Listen
Game: Higurashi no Naku Koro Ni
Composer(s): Kenji Kawai
Style: Arrangement, Fingerstyle, Pinch harmonics

AutoScroll: Slow | Medium | Fast
Title: Main Theme
SubTitle: Higurashi No Naku Koro Ni
Artist: Kawai Kenji
Tabber: Mitch Jackson
Tempo = 70
T/S = 4/4



     ♪♫•*¨*•.¸¸ CAPO 5 ¸¸.•*¨*•♫♪ 



     Q     Q     Q     Q          Q     Q     Q     Q          Q     Q     Q     Q          Q     Q     Q     E  E     
E |----------------------------|----------------------------|----------------------------|----------------------------|
B |--------------------0-------|-<1>---------<0>----3-------|--------------------0-------|-<1>---------<0>----3--1----|
F |--------------0-------------|--------------0-------------|--------------0-------------|--------------0-------------|
D |--------2-------------------|--------2-------------------|--------2-------------------|--------2-------------------|
A |--0-------------------------|--0-------------------------|--0-------------------------|--0-------------------------|
D |----------------------------|----------------------------|----------------------------|----------------------------|

                          

     Q     Q     Q     E  E       Q     Q     Q     E  E       Q     Q     Q     E  E       Q     Q     Q     E  E     
  |----------------------------|----------------------------|--0-----------1--------0----|----------------------------|
  |--0-----------3-----0--1----|--0-----------0-----3--1----|--------3-----------0-------|--3-----1-----0-----3--1----|
  |--------4-----0-------------|--------4-----0-------------|--------------0-------------|--------------0-------------|
  |--------2-------------------|--------2-------------------|--------2-------------------|--------2-------------------|
  |--0-------------------------|--0-------------------------|--0-------------------------|--0-------------------------|
  |----------------------------|----------------------------|----------------------------|----------------------------|

                                                          

     Q     Q     Q     E  E       Q     Q     Q     E  E       Q     Q     Q     E  E       Q     Q     Q     Q        
  |----------------------------|----------------------------|--3-----2-----1--------0----|----------------------------|
  |--0-----------3-----0--1----|--0-----------0-----3--1----|--------------------0-------|--3-----1-----0-----1-------|
  |--------4-----0-------------|--------4-----0-------------|--------------0-------------|--------------0-------------|
  |--------2-------------------|--------2-------------------|--------2-------------------|--------2-------------------|
  |--0-------------------------|--0-------------------------|--0-------------------------|--0-------------------------|
  |----------------------------|----------------------------|----------------------------|----------------------------|

                                                                           

     Q     Q     Q     Q          Q     E.  S Q     Q          Q     Q     Q     Q          Q     Q     Q     E  E     
  |----------------------------|--0-------------------------|----------------------------|----------------------------|
  |--0-----------------0-------|------------4-------3-------|--------------------0-------|-<1>---------<0>----3--1----|
  |--------4-----0-------------|--------------0-------------|--------------0-------------|--------------0-------------|
  |--------2-------------------|--------2-------------------|--------2-------------------|--------2-------------------|
  |--0-------------------------|--0-------------------------|--0-------------------------|--0-------------------------|
  |----------------------------|----------------------------|----------------------------|----------------------------|



     Q     Q     Q     E  E       Q     Q     Q     E  E       Q     Q     Q     E  E       Q     Q     Q     E  E     
  |----------------------------|----------------------------|--0-----------1--------0----|----------------------------|
  |--0-----------3-----0--1----|--0-----------0-----3--1----|--------3-----------0-------|--3-----1-----0-----3--1----|
  |--------4-----0-------------|--------4-----0-------------|--------------0-------------|--------------0-------------|
  |--------2-------------------|--------2-------------------|--------2-------------------|--------2-------------------|
  |--0-------------------------|--0-------------------------|--0-------------------------|--0-------------------------|
  |----------------------------|----------------------------|----------------------------|----------------------------|

                                                          

     Q     Q     Q     E  E       Q     Q     Q     E  E       Q     Q     Q     E  E       Q     Q     Q     Q
  |----------------------------|----------------------------|--3-----2-----1--------0----|----------------------------|
  |--0-----------3-----0--1----|--0-----------0-----3--1----|--------------------0-------|--3-----1-----0-----1-------|
  |--------4-----0-------------|--------4-----0-------------|--------------0-------------|--------------0-------------|
  |--------2-------------------|--------2-------------------|--------2-------------------|--------2-------------------|
  |--0-------------------------|--0-------------------------|--0-------------------------|--0-------------------------|
  |----------------------------|----------------------------|----------------------------|----------------------------|

                                                                           

     Q     Q     Q     Q          Q     E.  S Q     Q          Q     Q     Q     Q          Q     Q     Q     Q
  |----------------------------|--0-------------------------|----------------------------|----------------------------|
  |--0-----------------0-------|--0---------4-------3-------|--------------------0-------|--------------0-----3-------|
  |--------4-----0-------------|--------------0-------------|--4-----------0-------------|--4-----------0-------------|
  |--------2-------------------|--------2-------------------|--------2-------------------|--------2-------------------|
  |--0-------------------------|--0-------------------------|--0-------------------------|--0-------------------------|
  |----------------------------|----------------------------|----------------------------|----------------------------|

             

     E  E  E  E  E  E  E  E       E  E  E  E  E  E  E  E       E  E  E  E  E  E  E  E       E  E  E  E  E  E  E  E     
  |--0-----------1--------0----|----------------------------|--3-----2-----5--------3----|--2-------------------------|
  |--------3-------------------|--1-----------0-----1-------|----------------------------|--------------2-----3-------|
  |----------------------------|--------4-----4-----0-------|--------------2-------------|--------6-------------------|
  |--------3-----------3-------|-----2-----2-----2-----2----|--------2-----------2-------|-----4-----4-----4-----4----|
  |-----0-----0-----0----------|--0-------------------------|-----2-----2-----2----------|--2-------------------------|
  |--0-----------0-------------|----------------------------|--2-----------2-------------|----------------------------|

                                                          

     E  E  E  E  E  E  E  E       E  E  E  E  E  E  E  E       E  E  E  E  E  E  E  E       E  E  E  E  E  E  E  E     
  |--1-----0-----3--------1----|--0-------------------------|--------------0-------------|----------------------------|
  |----------------------------|--------0-----3-----1-------|-----------------------0----|--------------3-------------|
  |--------------------2-------|-----------4-----------2----|--4-----------------4-------|--2-----------------2--4----|
  |--------3--------3----------|-----2-----------2----------|--------------3--5----------|--------------2--4----------|
  |-----0-----0----------------|--0-------------------------|-----3--5--7----------------|-----2--3--5----------------|
  |--0-----------0-------------|----------------------------|--3-------------------------|--2-------------------------|

                                                          

     Q     Q     Q     Q          Q     Q     Q     Q          Q     Q     Q     Q          Q     Q     Q     E  E
  |----------------------------|----------------------------|----------------------------|----------------------------|
  |--0-----------------0-------|--------------------3-------|--------------------0-------|-<1>---------<0>----3--1----|
  |--------------0-------------|--------------0-------------|--------------0-------------|--------------0-------------|
  |--------2-------------------|--------2-------------------|--------2-------------------|--------2-------------------|
  |--0-------------------------|--0-------------------------|--0-------------------------|--0-------------------------|
  |----------------------------|----------------------------|----------------------------|----------------------------|

                      

     E  E  E  E  E  E  E  E       E  E  E  E  E  E  E  E       E  E  E  E  E  E  E  E       E  E  E  E  E  E  E  E     
  |----------------------------|----------------------------|--0-----------1--------0----|----------------------------|
  |--0-----------3--------1----|--0-----------0--------1----|--------3-----------0-------|--3-----1-----0--------1----|
  |--------4-----------0-------|--------4-----------0-------|--------0--------4----------|--------4-----------0-------|
  |-----2-----2-----2----------|-----2-----2-----2----------|-----2-----2----------------|-----2-----2-----2----------|
  |--0-----------0-------------|--0-----------0-------------|--0-----------0-------------|--0-----------0-------------|
  |----------------------------|----------------------------|----------------------------|----------------------------|

                                                          

     E  E  E  E  E  E  E  E       E  E  E  E  E  E  E  E       E  E  E  E  E  E  E  E       E  E  E  E  E  E  E  E     
  |----------------------------|----------------------------|--3-----2-----1--------0----|----------------------------|
  |--0-----------3--------1----|--0-----------0--------1----|--5-----3-----0-------------|--3-----1-----0-----0--1----|
  |--------4-----------0-------|--------4-----------0-------|--------------------0-------|--------0--------4----------|
  |-----2-----2-----2----------|-----2-----2-----2----------|-----2-----2-----2----------|-----2-----2----------------|
  |--0-----------0-------------|--0-----------0-------------|--0-----------0-------------|--0-----------0-------------|
  |----------------------------|----------------------------|----------------------------|----------------------------|

                                                         

     E  E  E  E  E  E  E  E       E  E  E  E  E  E  E  E       E  E  E  E  E  E  E  E       E  E  E  E  E  E  E  E     
  |----------------------------|----------------------------|----------------------------|--------------0-------------|
  |--0--------1--------0-------|--------------0-------------|--0-----------1-------------|--3-----------------0-------|
  |--------4--------------0----|--------2-----------2-------|--------0-----------2-------|--------4-----------0-------|
  |-----2-----------2----------|-----2-----2-----2-----2----|-----2-----2-----2-----2----|-----2-----2-----2-----2----|
  |--0-----------0-------------|--0-------------------------|--0-----------0-------------|--0-----------0-------------|
  |----------------------------|----------------------------|----------------------------|----------------------------|

                                                          
     ^
     W                            W                           
  |--5-------------------------|--L-------------------------||
  |--0-------------------------|--L-------------------------||
  |--4-------------------------|--L-------------------------||
  |--2-------------------------|--L-------------------------||
  |--0-------------------------|--L-------------------------||
  |----------------------------|----------------------------||

Login or Register to remove this ad.