Dear You (Higurashi no Naku Koro Ni) Ukulele Tab

Submitted: May 07, 2015 by CandyCane52

3
Average: 3 (2 votes)
Download | Listen
Game: Higurashi no Naku Koro Ni
Composer(s): Kenji Kawai
Style: Transcription

AutoScroll: Slow | Medium | Fast
Dear You
Higurashi no Naku Koro Ni (Anime)
dai/Kotoha Minoru
CandyCane52
03/05/2015
 :00					:18
G----------------------------------	----------------------------------------------------------------------
C----------------------------------	----------------------------------------------------------------------
E-6-------2------4------9----------	------------4----------------------11-------------4-------------------
A---8-11----4-8----6-9----11-11- x2	-6--8p6p4-6----8p6p4-6--8p6p4-4-11-----6--8p6p4-6----8p6p4-6--8p6p4-4-
 :31					:42/:55
G----------------------------------	-------------------------------------------------------------------------
C----------------------------------	-------------------------------------------------------------------------
E-6-------2------4------9----------	-6----------4------4-4--------4----11--6----------4------4-4--------4----
A---8-11----4-8----6-9----11-11- x2	-6--8p6p4-6----8p6p4-6--8p6p4-4-11-----6--8p6p4-6----8p6p4-6--8p6p4-4- x2
 1:07						      1:19
G------------------------------------------------------------------------------------------------------------------------------
C------------------------------------------------------------------------------------------------------------------------------
E-4-4-1--4-----------------4-4-1--4--------------------4-1--4--------------------4-4-1-4-------------------------------------9-
A----------4--4-6-6-6-8-8------------4-4-6-6-6-6-11-8---------4-4-4-4-6-6-6-8-8-----------4-4-6-6-3h4h6-11-8--11-11-8--11-11---
 1:35							1:43/1:58
G---------------------------------------------		-----------------------------------------------------------------------------
C---------------------------------------------		-----------------------------------------------------------------------------
E-------------------------------9-------------		-(4)-6----------4------4-4--------4----11--6----------4--------4--------4----
A-6-6-4-6--8-6-8-11-11-8--11-11----6-6-4--6-4-		-(4)-6--8p6p4-6----8p6p4-6--8p6p4-4-11-----6--8p6p4-6----8p6p4-6--8p6p4-4- x2
 2:07
G----------------------------------------------------------------------------------------------------------------------------------------
C-1h3-----------------------0h1-3-1-1--------------------------3-----------------------------------------5-4-5---------------------------
E----h1h2h4-------------1h2-------1-1---------------4------------4--------11--------------6--------------------------------6--6-8-6----4-
A-----------4-4--6-4--1----------------4-3-4-1--4-4----4-3h4h6-6---8h9h11-11--8-11-8--6-6----4-3h4h6-6-9-8-7-8-6-8-13--8-6----4-6-4--6-4-
 2:32							    2:44
G------------------------------------------------------------------------------------------------------------------------
C----------------------------------------------------------------------------------------------------------1--3-3-1--3-1-
E-4-4-1--4--------------------4-4-1h2h4----------------------4-4-1h2h4-------------------------4--4-1--4-4---------------
A----------4--4-6-6-6-6-8-8--------------4-4-6-6-3h4h6-11-8------------4-4h6h9-8-4-6-4-6-9-8-----------------------------
 2:57/3:08									3:21
G-------------------------------------------------------------------------	--------------------------------------------------------------
C-------------------------------------------------------------------------	--------------------------------------------------------------
E-6----------4------4-4--------4----11--6----------4------4-4--------4----	--------------------------------------------------------------
A-6--8p6p4-6----8p6p4-6--8p6p4-4-11-----6--8p6p4-6----8p6p4-6--8p6p4-4- x2	-6-8-6-8-13p8p6h8p6--8-6-8-11-8--6-8-6-8-13p8p6h8p6--6-4--6-4-
 3:34							    3:46
G----------------------------------------------------------------------------------------------------------
C-3-5-3-5--5p3h5p3--5-3-5-8-5--3-5-3-5--5p3h5p3--3-1--3-1----------------------------------3--1--0--1--1---
E---------6----------------------------6--------------------6--------2-------4-------9------------------1--
A-------------------------------------------------------------8-11-8---4-8-4---6-9-6---11--6--4--3--4----4-
Login or Register to remove this ad.