Ads

Dear You (Higurashi no Naku Koro Ni) Guitar Tab

Submitted: Nov 18, 2009 by abunai59 (Last updated: Nov 18, 2009)

4
Average: 4 (4 votes)
Download | Listen
Game: Higurashi no Naku Koro Ni
Composer(s): Kenji Kawai
Style: Arrangement, Fingerstyle

AutoScroll: Slow | Medium | Fast
|Song: Dear You                    |
|Anime: Higurashi**                | 
|Version: Unknown                  |                      
|Tabber: abunai59                  |
|(youtube.com/abunai59)            |
|Date: 12/30/2008                  |
+----------------------------------+
 
Please contact me if you see any mistakes in spelling, I like to keep it professional.
 
Higurashi no naku koro ni, Dear You Tab:
Based off of xxxxxAznpridexxxxx's (www.youtube.com/user/xxxxxAznpridexxxxx - the account is now closed) interpretation of the song.
 
my try at it:
http://www.youtube.com/watch?v=Zx8Dqav_gh4
(note that this was a year ago, and I wasn't very good at the time.  I can play it much better and more fluently now)

Message me on YouTube if you have any comments or corrections at my channel: abunai59
 
Tempo:  Keep it moderate.  Slow, yet flowing.
 
Capo:  You probably want to Capo the 1st fret, but this tab is written as if you haven't. 
If you do Capo, ignore all the 1's in the tab and make them 0's.
 
Fingerings:  mess around with fingerings to make it comfortable for you to play.
for example, playing a 1 on the next string up may be easier than playing a 6.
 
Timeline:
0:00-0:18 First Part
0:18-0:34 Second Part
0:34-1:03 Third Part
1:03-1:45 Fourth Part
1:45-2:15 Third Part
2:15-3:10 Fifth Part
3:10-3:37 Third Part
3:37-4:05 Sixth Part
4:05-end Second Part (with ending)
 
 
As you can see, you need to study the Third Part well because it shows up alot.
 
*note:  this tab still needs some tweaking
**note:  this is my first tab ever, so don't be pissed if it's wrong
 
First Part (see below for revised edition)
e|-----------------------------------------------------4-------
b|-4--6--4-----4--------6--4-------4------6--4-----4-------4---
g|----------6------6-----------6----------------6--------------
d|-------------------------------------------------------------
a|-1-----------------------------------------------4-----------
e|-------------2-------------------4---------------------------
 
e|---------------------------------------------------(4)-(1)--
b|-4--6--4-----4-------6--4-------4----6--4--------4----------
g|----------6-----------------6----------------6--------------
d|-----------------6------------------------------------------
a|-1-----------------------------------------------4----------
e|-------------2------------------4---------------------------
 
First Part (revised if this is easier than the other way)
e|----1-----------------1-----------------1------------4-------
b|-4-----4--2--4---2-------4--[2]--4---------4-[2]-4-------4---
g|----------------------------[6]--------------[6]-------------
d|-------------------------------------------------------------
a|-1-----------------------------------------------4-----------
e|-------------2-------------------4---------------------------
[]- 2 or 6 is ok
e|----1----------------1---------------1--------------(4)-(1)--
b|-4-----4--2--4----------4--[2]--4-------4---[2]--4-----------
g|-----------------1---------[6]--------------[6]--------------
d|-------------------------------------------------------------
a|-1-----------------------------------------------4-----------
e|-------------2------------------4----------------------------
[]- 2 or 6 is ok
 
Second Part (triplets in 2 quarter notes)
e|--------------------------------
b|--------------------------------
g|-----1--------------------5-----
d|---3--------3------4----6-------
a|-1--------4------6----4---------
e|--------2------4----------------
 
e|--------------------------------(------11--)
b|--------------------------------(---6------)
g|-----1--------------------5-----(----------)
d|---3--------3------4----6-------(6---------)
a|-1--------4------6----4---------(----------)
e|--------2------4----------------(----------)
 
()-ending to the song
 
Third Part
(Combine the first and second part somehow)
***note:  this is where it starts to get a bit difficult, but still fun
 
Understand that this is a blend of the two previous parts, so keep thinking triplets. 
The interesting part is that the first part trades off with the second ever set of triplets.
e|--------1--------------1--------------1-----------4-----
b|--4--------4--2--4--1-----4--2--4--------4--2--4-----4--
g|--------1----------------------------------------[1]-5--
d|-----3-----------------3----------[1]-4----------[6]----
a|--1-----------------4-------------[6]----------4--------
e|-----------------2--------------4-----------------------
 
e|--------1--------------1--------------1-----------4-----
b|--4--------4--2--4--------4--2--4--------4--2--4-----6--
g|--------1-----------1----------------------------[1]-5--
d|-----3-----------------3----------[1]-4----------[6]----
a|--1-----------------4-------------[6]----------4--------
e|-----------------2--------------4-----------------------
 
e|--------1--------------1--------------1-----------4-----
b|--4--------4--2--4--1-----4--2--4--------4--2--4-----4--
g|--------1----------------------------------------[1]-5--
d|-----3-----------------3----------[1]-4----------[6]----
a|--1-----------------4-------------[6]----------4--------
e|-----------------2--------------4-----------------------
 
e|--------1--------------1--------------1----------(4)-------
b|--4--------4--2--4--------4--2--4--------4--2-(4)---(6)----
g|--------1-----------1----------------------------[1]-5-----
d|-----3-----------------3----------[1]-4----------[6]----6--
a|--1-----------------4-------------[6]----------4-----------
e|-----------------2--------------4--------------------------
 
That covers about 1 minute of the song so far...
 
Fourth Part
(Yay, super difficult)
****note:  after you get this mastered, you pretty much have up to 2:15, repeating "Third Part" again. 
From there, it's some solo stuff until about 3:10 where it switches back to the "Third Part" until about 3:37,
where it has more solo stuff. 
Once you've nailed that solo, you're pretty much done with the whole song.
 
e|-------|-------------------------1--1-----------
b|-------|----2-----2--2--4--4--4-----------------
g|-------|-1----------------------------[1]-5-[1]-
d|-----3-|----------3-------[1]-4-------[6]---[6]-
a|--1----|-------4----------[6]-------4-----------
e|-------|----2-----------4-----------------------
 
e|-------|-------------------------4--1--------
b|-------|----2-----2--2--4--4--4--------------
g|-------|-1----------------------------[1]-5--
d|-----3-|----------3-------[1]-4-------[6]----
a|--1----|-------4----------[6]-------4--------
e|-------|----2-----------4--------------------
 
e|-------|-------------------------1--1-----------
b|-------|----2-----2--2--4--4--4-----------------
g|-------|-1----------------------------[1]-5-[1]-
d|-----3-|----------3-------[1]-4-------[6]---[6]-
a|--1----|-------4----------[6]-------4-----------
e|-------|----2-----------4-----------------------
 
e|-------|-------------------------4--1--------
b|-------|----2-----2--2--4--4--4--------------
g|-------|-1----------------------------[1]-5--
d|-----3-|----------3-------[1]-4-------[6]----
a|--1----|-------4----------[6]-------4--------
e|-------|----2-----------4--------------------
 
Time marker- 1:31
e|--4--4--1-----4--4-----------------------1-----1--
b|--------------------2-----2--4--4--4--2-----4-----
g|-----------1----------------(5)-------------1--5--
d|--------3--------------3-------[1]-4--------------
a|-----1--------------4----------[6]-------4--------
e|-----------------2-----------4--------------------
 
e|--4--4--1-----4--4--------------------------------
b|--------------------2-----2--4--4--4--2--2--------
g|-----------1----------------(5)------------[1]-5--
d|--------3--------------3-------[1]-4-------[6]----
a|-----1--------------4----------[6]-------4--------
e|-----------------2-----------4--------------------
 
 
 
Third Part (again)
e|--------1--------------1--------------1-----------4-----
b|--4--------4--2--4--1-----4--2--4--------4--2--4-----4--
g|--------1----------------------------------------[1]-5--
d|-----3-----------------3----------[1]-4----------[6]----
a|--1-----------------4-------------[6]----------4--------
e|-----------------2--------------4-----------------------
 
e|--------1--------------1--------------1-----------4-----
b|--4--------4--2--4--------4--2--4--------4--2--4-----6--
g|--------1-----------1----------------------------[1]-5--
d|-----3-----------------3----------[1]-4----------[6]----
a|--1-----------------4-------------[6]----------4--------
e|-----------------2--------------4-----------------------
 
e|--------1--------------1--------------1-----------4-----
b|--4--------4--2--4--1-----4--2--4--------4--2--4-----4--
g|--------1----------------------------------------[1]-5--
d|-----3-----------------3----------[1]-4----------[6]----
a|--1-----------------4-------------[6]----------4--------
e|-----------------2--------------4-----------------------
 
e|--------1--------------1--------------1----------(4)-------
b|--4--------4--2--4--------4--2--4--------4--2-(4)---(6)----
g|--------1-----------1----------------------------[1]-5-----
d|-----3-----------------3----------[1]-4----------[6]----6--
a|--1-----------------4-------------[6]----------4-----------
e|-----------------2--------------4--------------------------
 
 
Fifth Part
Time marker- 2:15
 
e|------------------------------------------------------
b|-----2--2-----4--2---------------------------2--1--2(continue to let it ring)
g|--------1--------------3-----1------------1-----------
d|-----3--------------3----3h4-1--1--4--3---------------
a|--1--------------4--------------------4---------------
e|--------------2-----------4---------------------------
h-hammer on
 
e|-------------------------------------1h2-4--4--P--1--
b|-----------2--2--------2-1h2-4--4-----------1--P-----
g|--------1--------3-----------------------1-----P-----
d|-----3--------------3--------1--4--------------P-----
a|--1--------------4--------------------4--------P-----
e|--------------2-----------4--------------------P-----
h-hammer on
P-pickup to the next phrase
 
e|--4--1-----------------------------2--1-----1--P-----
b|-----------4--4--------2-1h2-4--4--------5-----P--5--
g|--------1--------------------------------1--5--P-----
d|-----3--------------3--------1--4--------------P-----
a|--1--------------4--------------------4--------P-----
e|--------------2-----------4--------------------P-----
h-hammer on
P-pickup to the next phrase
 
e|--1--6-----1-----1----------------------------------
b|--------------4--------4-(2h)4-2-----4--2-----------
g|--------1----------------------------------1--5--1--
d|-----3--------------3----------1--4-----------------
a|--1--------------4----------------------4-----------
e|--------------2-------------4-----------------------
(2h)-not necessary
 
Time marker- 2:40
 
e|----------------------------------1--1---
b|----------------2--2--4--4--4--4---------
g|--------1--------------------------------
d|--3--3------------------------------(6)--
a|--4----------4----------(6)----------4---
e|-------------------------4---------------
 
e|--R--------------------------------------4--1--
b|--R--------------------2--2--4--4--4--4--------
g|--R--1-------1---------------------------------
d|--R----3--3--------------------------------(6)-
a|--R---------------4------------(6)----------4--
e|--R-----------------------------4--------------
R-rest
 
e|-----------------------------------1--1--P-----
b|-----------------2--2--4--4--4--4--------P-----
g|--------1--1-----------------------------P-----
d|--3--3-------------------------------(6)-P-----
a|--4-----------4----------(6)----------4--P--4--
e|--------------------------4--------------P-----
 
e|---4--4--1-----4--4-----------------------------------
b|---------------------2-----2-2h4-4--4--2--2-----1--2--
g|------------1--------------------------------1--------
d|---------3--------------3--------1--4-----------------
a|------1--------------4--------------------4-----------
e|------------------2-----------4-----------------------
 
 
Third Part (again)
e|--------1--------------1--------------1-----------4-----
b|--4--------4--2--4--1-----4--2--4--------4--2--4-----4--
g|--------1----------------------------------------[1]-5--
d|-----3-----------------3----------[1]-4----------[6]----
a|--1-----------------4-------------[6]----------4--------
e|-----------------2--------------4-----------------------
 
e|--------1--------------1--------------1-----------4-----
b|--4--------4--2--4--------4--2--4--------4--2--4-----6--
g|--------1-----------1----------------------------[1]-5--
d|-----3-----------------3----------[1]-4----------[6]----
a|--1-----------------4-------------[6]----------4--------
e|-----------------2--------------4-----------------------
 
e|--------1--------------1--------------1-----------4-----
b|--4--------4--2--4--1-----4--2--4--------4--2--4-----4--
g|--------1----------------------------------------[1]-5--
d|-----3-----------------3----------[1]-4----------[6]----
a|--1-----------------4-------------[6]----------4--------
e|-----------------2--------------4-----------------------
 
e|--------1--------------1--------------1----------(4)-------
b|--4--------4--2--4--------4--2--4--------4--2-(4)---(6)----
g|--------1-----------1----------------------------[1]-5-----
d|-----3-----------------3----------[1]-4----------[6]----6--
a|--1-----------------4-------------[6]----------4-----------
e|-----------------2--------------4--------------------------
 
Sixth Part
e|-----1-----1--6--1--1-----1-(1)----------4--1--P---1--
b|--4-----4--------------4--------4--4--2--------P------(4)
g|-----1--1--------------------------------------P------
d|-------------[4]-------------------------------P------
a|--1----------------------------------------{4----3----(1)----> (1st note of next phrase)
e|-------------[2]----------------4--------------P------
{quarter notes>
[] play the 4 if you cant reach the 2.
it's essentially the same note but one octave higher
 
                                  S
e|-----1-----1--6--1--1-----1-(1)----------------P-----
b|--4-----4--------------4--------4--4--2--4--2--P--2--
g|-----1--1----------------------S1S-------------P-----
d|-------------[4]---------------S1S-------------P-----
a|<-1-----------------------------------------4--P-----
e|-------------[2]----------------4--------------P-----
                                  S
S-strum (sorta)
 
    S
e|-----1-----1--6--1--1-----1-(1)-----------4--1--P---1--
b|--4-----4--------------4--------4--4--2------X--P------(4)
g|-S1S---------------------------S1S----------S1S-P------
d|-S1S---------[4]---------------S1S----------S3S-P------
a|--------------------------------------------{4----3----(1)----> (1st note of next phrase)
e|-------------[2]----------------4---------------P------
    S
X-mute
 
e|-----1-----1--6--1--1-----1-(1)----------------
b|--4-----4--------------4--------4--4--2--4--2--
g|-----1--1----------------------S1S-------------
d|-------------[4]---------------S1S-------------
a|<-1-----------------------------------------4--
e|-------------[2]----------------4--------------
                                  S
 
Ending
e|--------------------------------
b|--------------------------------
g|-----1--------------------5-----
d|---3--------3------4----6-------
a|-1--------4------6----4---------
e|--------2------4----------------
 
e|------------------------------------(11)
b|--------------------------------6-------
g|-----1--------------------5-------------
d|---3--------3------4----6----6----------
a|-1--------4------6----4-----------------
e|--------2------4------------------------
Login or Register to remove this ad.

4 comments on Dear You

you should find out what

you should find out what version this is

i've made a tab for the original instrumental version that i havent uploaded yet

version

Yeah, I guess I should find out.
I'll try working on that this weekend, though I'm not too sure if I'll come up with anything relevant.
I think it's based off of some piano version of the song. (Although all the versions have piano in them, so I guess that's a clue that I won't be able to use)

Sup Dude....

hey man it's me romyl..... check out my tabs too....

Amazing arrangement. Horrible tabs.

5

This could have been so much more simple if you simply tabbed it with a capo on 1 instead of making us do mental gymnastics trying rearrange numbers in our heads as we play. Most of us are used to playing with capos often so reading this tab was very weird for me. But the arrangement itself is great!