Ads

From The Sky (Higurashi Daybreak) Guitar Tab

Submitted: May 06, 2010 by RexLeRouge (Last updated: May 06, 2010)

5
Average: 5 (1 vote)
Download | Listen
Game: Higurashi Daybreak
Composer(s): Dai
Style: 2 or more instruments, Transcription

AutoScroll: Slow | Medium | Fast

From The Sky

Mélodie

                             G                       Em6                   
     H        E  E  E  E     Q    E  Q    Q    E     Q    E  Q    Q    E   
E||-----------------------|-------5---------------|-------5------------5--|
B||--------------------5--|--8-------8---------5--|--8-------8----8-------|
G||--------------7--7-----|---------------7-------|-----------------------|
D||-----------------------|-----------------------|-----------------------|
A||-----------------------|-----------------------|-----------------------|
E||-----------------------|-----------------------|-----------------------|


  Am                        C          D               
  E  E  E  Q    E  E  E     E   E   E  Q    E   E  E   
--L--7--5----------------|-----10---------------------|
-----------8-------5-----|---------10--7----8--10-----|
----------------7-----7--|--L-------------------------|
-------------------------|----------------------------|
-------------------------|----------------------------|
-------------------------|----------------------------|


   G                           Em6                          
   Q     E   Q     Q     E     E    E   E   Q     E  E  E   
------------------------12--|--L---------------------------|
--10----12------------------|------12--10------------------|
------------12----12--------|--------------12--------7--9--|
----------------------------|--------------------10--------|
----------------------------|------------------------------|
----------------------------|------------------------------|


  D        C                D         G            
  E  E  E  Q    Q    E      E  E   E  E  H         
------------------------|------7------------------|
--------7--8----8-------|--10-----10--8--L--------|
--7--9---------------9--|-------------------------|
------------------------|-------------------------|
------------------------|-------------------------|
------------------------|-------------------------|


    Just fool around on a G chord.                                          
    W                                 W                   W                 
|----------------------------------|-------------------|-------------------|
|----------------------------------|-------------------|-------------------|
|*---------------------------------|-------------------|-------------------|
|*---------------------------------|-------------------|-------------------|
|----------------------------------|-------------------|-------------------|
|----------------------------------|-------------------|-------------------|


  Repeat this part to your heart's content.                      
  W                                            W                 
--------------------------------------------|-------------------|
--------------------------------------------|-------------------|
--------------------------------------------|-------------------|
--------------------------------------------|-------------------|
--------------------------------------------|-------------------|
--------------------------------------------|-------------------|


                      Have Fun! :-)                             
  W                   W                   H        E  E  E  E   
-------------------|-------------------|-----------------------|
-------------------|-------------------|-----------------------|
-------------------|-------------------|--------------7--7--9--|
-------------------|-------------------|-----------------------|
-------------------|-------------------|-----------------------|
-------------------|-------------------|-----------------------|


  H        E  E  E  E     E  S E   S Q    E  E  E   
-----------------------|-------------7----7--7--7--|
--8--------L--8--8-----|--8----8--10---------------|
--------------------7--|-----7---------------------|
-----------------------|---------------------------|
-----------------------|---------------------------|
-----------------------|---------------------------|


  S  E  E.  E  E   E  E  E      S  E   S Q.     E  E   E   
--7-------------------7--8--|--10-12--10-L------8--7------|
----10--8------8--10--------|-------------------------10--|
------------7---------------|-----------------------------|
----------------------------|-----------------------------|
----------------------------|-----------------------------|
----------------------------|-----------------------------|


  H        E  E   E  E      S E  S Q.     E  E  E   
--7--------L--7---------|-----7--------------------|
-----------------10--8--|--10----------------------|
------------------------|--------7-L------7--9--7--|
------------------------|--------------------------|
------------------------|--------------------------|
------------------------|--------------------------|


  S E  S E  E  E   E  E   E      S S  S S H        Q     
----------------------7------|-----7--------------------|
----8--8-L-----8--10-----10--|--10---10-8-L-------------|
--9---------7----------------|--------------------------|
-----------------------------|--------------------------|
-----------------------------|--------------------------|
-----------------------------|--------------------------|


  E  E  Q    E  Q    E      E   E  Q.     E  E   E     E  H        E  E  E   
------------------------|--10--10--L------8--7------|--7--------------------|
-----8-------8-------8--|-----------------------10--|-----------------------|
--------7-------7-------|---------------------------|-----7--------7--9--7--|
------------------------|---------------------------|-----------------------|
------------------------|---------------------------|-----------------------|
------------------------|---------------------------|-----------------------|


  E  Q    E  E   E   Q       E  E  Q    E  Q    E      E   E  Q.     E  E   E   
----------------10--10----|------------------------|--10--10--L------8--7------|
--8-----------------------|-----8-------8-------8--|-----------------------10--|
-----7----9--7------------|--------7-------7-------|---------------------------|
--------------------------|------------------------|---------------------------|
--------------------------|------------------------|---------------------------|
--------------------------|------------------------|---------------------------|


  E  E  Q    E  Q    E     E  E  H        Q       
-----7------------------|-----------------------||
-------------8----------|--8--8--L--------------||
--------7-------7----9--|----------------------*||
------------------------|----------------------*||
------------------------|-----------------------||
------------------------|-----------------------||


Duration Legend
---------------
W - whole
H - half
Q - quarter
E - 8th
S - 16th
T - 32nd
X - 64th
. - note dotted
|-n-| - n-tuplets

Tablature Legend
----------------
L - tied note
x - dead note
g - grace note
(n) - ghost note
> - accentuded note
NH - natural harmonic
AH - artificial harmonic
TH - tapped harmonic
SH - semi harmonic
PH - pitch harmonic
h - hammer on
p - pull off
b - bend
br - bendRelease
pb - preBend
pbr - preBendRelease
brb - bendReleaseBend
\n/ - tremolo bar dip
\n - tremolo bar dive
-/n - tremolo bar Release up
/n\ - tremolo bar inverted dip
/n - tremolo bar return
-\n - tremolo bar Release down
S - shift slide
s - legato slide
/ - slide into from below or out of upwards
\ - slide into from above or out of downwards
~ - vibrato
W - wide vibrato
tr - trill
TP - tremolo picking
T - tapping
S - slap
P - pop
< - fade in
^ - brush up
v - brush down

Login or Register to remove this ad.