...sou Shinjiterundesu (High School DxD) Guitar Tab

Submitted: Aug 22, 2017 by MechaKrauser

5
Average: 5 (1 vote)
Download | Listen
Game: High School DxD
Composer(s): Ryosuke Nakanishi
Style: Arrangement, Fingerstyle

AutoScroll: Slow | Medium | Fast
....sou Shinjiterundesu
from High School DxD
music by Ryosuke Nakanishi
tab by MechaKrauser

Standard tuning, capo 5
6/8 time, 58bpm


                ^        ^           ^                          ^              ^                    
     Q    E     E  E  E  E  E  E     E  E  E  E  E  E     E  E  E  E  E  E     E  E  S  S E  E  E   
E||----------|--------2--------2--|--------------------|--------------------|--2-------------------|
B||-------2--|--3--------2--------|--0-----------------|--------0--2-----5--|--3-----5p-3-2-----2--|
G||----------|--4--------2--------|--0-----0--2--2-----|--0--2-----2--2-----|-----2----------3-----|
D||----------|-----4--------2-----|-----0--------2--4--|--2-----2-----2-----|--0----------------4--|
A||----------|--2--------0--------|-----------------4--|-----2-----4--------|----------------------|
E||----------|--------------------|--3--------2--------|--0-----------------|----------------------|


  ^        ^           ^                             ^           ^                  
  E  E  E  E  E  E     E  E  E  E  E  E     E  E  E  E  E  E     E  E  E  Q    S S  
--------2--------2--|--------------------|--------------------|------------------0-|
--3--------2--------|--0-----------------|--------0--------2--|--------2-------3---|
--4--------2--------|--0-----0--2--2-----|--0--2-----3-----3--|--4--------4--------|
-----4--------2-----|-----0--------2--4--|--2-----2--4--4-----|--4--4--------------|
--2--------0--------|-----------------4--|-----2--------4-----|--2-----------------|
--------------------|--3--------2--------|--0--------2--------|--------------------|


  ^                                           ^                    ^        ^          
  E  E  E  E  E  E     E  E  E  E  E  S  S    E  E  E  E  E  E     E  E  E  Q    S  S  
--2--2--2--2--0-----|-----------0----------|--0--0--0--0--------|---------------------|
-----------------3--|--2-----3--2-----2s-3-|--------------3--2--|--0-----2--3----0h-2-|
-----------0--------|--2-----2-------------|-----------2--------|-----------2---------|
--------0-----------|-----2--------2-------|--------0-----------|--4--0--4------------|
-----2--------------|--0-------------------|-----0--------------|--2--------0---------|
--3-----------------|----------------------|--2-----------------|---------------------|


                                            ^                       ^               
  E  E  E  E  E  E     E  E  E  E  E  E     E  E  E  E  E   E       H        E  E   
--------------------|--------------------|-----------2--4S--7S--|--12--------------|
--3-----0-----0--2--|--3-----------4--3--|-----2--5--2------0---|---------------2--|
--4--------0--------|--1-----4--1--------|----------------------|--11--------------|
--------4--2--------|--------3--0--------|--4-----4-------------|------------------|
-----2--------------|-----2--------------|-----4----------------|---9--------------|
--0-----------------|--1-----------------|--2-------------------|------------------|


  ^        ^           ^                                         ^                      
  E  E  E  E  E  E     E  E  E  E  E  E     E  E  E  E  E  E     E  E  S  S E  E  S  S  
--2-----------------|--------7--5--------|--0-----------------|--2---------------------|
--3-----3--2-----2--|--0--------------3--|-----------2-----5--|--3-----5p-3-2-----3h-5-|
-----------2--------|--0-----0--2--------|--0-----0--2--2-----|-----2----------3-------|
-----4--------2-----|-----0--------2-----|--------------2-----|--0----------------4--L-|
--2--------0--------|-----------------4--|-----2-----4--------|------------------------|
--------------------|--3--------2--------|--0-----------------|------------------------|


  ^        ^           ^                             ^           ^                   
  E  E  E  E  E  E     E  E  E  E  E  E     E  E  E  E  E  E     E  E  E  Q    S  S  
--2--------------2--|--2-----7--5--------|--0-----------------|----------------0h-2-|
--3-----3--2--------|--0--------------3--|--------0--------2--|--------2------------|
-----------2-----2--|--------0--2--------|--0--2-----3-----3--|--4--------4---------|
-----4--------2-----|-----0--------2-----|--------2--4--4-----|--4--4---------------|
--2--------0--------|-----------------4--|-----2--------4-----|--2-----4--2---------|
--------------------|--3--------2--------|--0--------2--------|---------------------|


  ^                      ^                      ^                 ^                   
  E  E  E  E  E   E      E  E   E  E  E   E     Q    E  Q.        E  E  E  E  E   E   
--3--------0--3--10S--|--9---------0---------|-----------------|--------------6--11--|
--------3-------------|--0-----10--0---------|-------1--3------|-----------6---------|
-----0-----0----------|---------------7S--6--|--3--------------|--0-----8------------|
----------------------|---------9------------|-------3---------|-----------8---------|
--3-------------------|-----9------9---------|--1-------1------|--6------------------|
----------------------|--7-------------------|-----------------|-----6---------------|


  ^                      ^                              
  E  E  E  E  E  E       H.              H.             
--3-----------3--5S--|--10------------|--L------------||
--------3--5---------|----------------|---------------||
-----2-----2---------|---7------------|--L------------||
--0------------------|---0------------|--L------------||
---------------------|----------------|---------------||
---------------------|----------------|---------------||




Duration Legend
---------------
W - whole
H - half
Q - quarter
E - 8th
S - 16th
T - 32nd
X - 64th
. - note dotted
|-n-|  - n-tuplets


Tablature Legend
----------------
L - tied note
x - dead note
g - grace note
(n) - ghost note
> - accentuded note
NH - natural harmonic
AH - artificial harmonic
TH - tapped harmonic
SH - semi harmonic
PH - pitch harmonic
h - hammer on
p - pull off
b - bend
br - bendRelease
pb - preBend
pbr - preBendRelease
brb - bendReleaseBend
\n/ - tremolo bar dip
\n - tremolo bar dive
-/n - tremolo bar Release up
/n\ - tremolo bar inverted dip
/n - tremolo bar return
-\n - tremolo bar Release down
S - shift slide
s - legato slide
/ -  slide into from below or out of upwards
\ -  slide into from above or out of downwards
~ - vibrato
W - wide vibrato
tr - trill
TP - tremolo picking
T - tapping
S - slap
P - pop
< - fade in
^ - brush up
v - brush down
Login or Register to remove this ad.